tablaturas, partituras y acordes para guitarra
Busca por banda/artista:
 
y/o título de la canción:
A B C D E F G H I J K L M N O P Q R S T U V W X Y Z 0 1 2 3 4 5 6 7 8 9 / Top 100 tabs
Categorías
Usuarios
usuario:
Darse de alta
password:
Artistas más visitados
Publicidad
TOP acordes y tablaturas de Guitar hero


Estás en: Inicio > Letra G > Acordes y tablaturas de Guitar hero > Sweet child o' mine
Sweet child o' mine
de Guitar hero
Puntúa este acorde/tab:      
(0.1/5)
Reportar este acorde/tab
  Añadir a tus favoritos
  Imprimir
Intro

O:11
Gb|------------------|
Db|-------12-(X4)----| 
Ab|------------------|
Eb|------------------|

Gb|-------11-11-12-14-16-14-12s11-11--------12------10-(b9)----10-(b9)---------------12------------|
Db|----12---------------------------12--10------10-------10-------10--------10/12----10/12-----|
Ab|-12---------------------------------------------------------------12--10--------------------|
Eb|--------------------------------------------------------------------------------------------|

Gb|---12-11----12-11-------------------|
Db|---------12---------12-12-12-12-----|
Ab|------------------------------------|
Eb|------------------------------------|

Gb|----------------------------------------------------------------------------|
Db|-----------4-7-4-------------3-2--------------3-4-5-------------4-7----5-4--|
Ab|-5-55-55-5---------3-33-33-3-----------------------2-3-4-5-55-5------5------|
Eb|----------------5----------------5--3-33-33--0---------------------5--------|

1º Verso
Gb|-----------------------------------------------------7--------------|
Db|----------------------------------------5-----------------5-4-------|
Ab|-5-55-55-55-2-3-33-33-3-33-2-0------------3-5-55-55-----5-----------|
Eb|------------------------------3-33-33-33--------------5-------------|

Gb|---------------------------------------------------------5h6h7-7777-----|
Db|------------------------------------------------------------------------|
Ab|-5-55-55-55-2-3-33-33--------------------------2-3-4-5-55---------------|
Eb|---------------------0-0-0-1-1-2-2-3-33-33-3-33-------------------------|

1º Refrão
Gb|------------------------------------------------------5h6h7-7777-----|
Db|----------------------------7-5-4------------------------------------|
Ab|---------2-3-3-33-5-55-55-5------5------2-3-3--33-5-55---------------|
Eb|-5-5-55---------------------------5-5-55-----------------------------|


Gb|---------------|----------7-----|---------------|---5------5-----|
Db|---------------|----------------|---------------|----------------|
Ab|-5----5-5----5-|-5----5-5-----0-|-3----3-3----3-|-3----3-3-------|
Eb|---------------|----------------|---------------|--------------0-|

Gb|---------------|-----------------|---------------|---7-----------|
Db|---------------|-----------------|---------------|---------5--4--|
Ab|---------------|-----2---3---4---|-5----5-5----5-|-5-----5-------|
Eb|-3----3-3----3-|-3-3---3---3---3-|---------------|---------------|


2º Verso
Gb|-----------------------------------------------7--7-7|
Db|---------------------5-3-2---------------------------|
Ab|-5-55-55-55-3-33-33-3-----3-----------3-5-55-55-55-5-|
Eb|---------------------------3-33-33-33----------------|

Gb|---------------------------------------------------------5h6h7-7777-----|
Db|------------------------------------------3-4-5-------------------------|
Ab|-55-55-55-55-3-33-33---------------------------2-3-4-5-55---------------|
Eb|--------------------0-0-0-1-1-2-2-3-33-330------------------------------|

2º Refrão
Gb|----------------------------7--------------------------7---7---7---7---|
Db|-----------------------------------------------------------------------|
Ab|--------2-3-3-33---5-55-55-5-----------2-3-3-33-5-55-----5---5---5---5-|
Eb|-5-5-55----------5-----------5--5-5-55---------------------------------|



Gb|--------------------------------------------------------------------------|
Db|-----------------------22-33-44----------3-4-5----------------4-7-----5-4-|
Ab|--5-55-55-55-2-3-33-33--------------------------2-3-4-5-5---5-------5-----|
Eb|-5------------------------------0-3-33-330----------------5-------5-------|

Gb|--------------------------------------------------------7777777--|
Db|--------------------------------------3-4-5----------------------|
Ab|-5-55-55-55-2-3-33-33-3-33-2---------------2-3-4-5-55-5----------|
Eb|----------------------------5-3-33-330-----------------5---------|

3º Refrão 
Gb|--------------------------------------------------------------------------|
Db|--------------------------7777-5-4----------------------------------------|
Ab|---------3-3-33---5-55-55----------5--------2-3-3-33-5-55-55--------------|
Eb|-5-5-55---------5--------------------5-5-55-----------------0-2-0-3-0-4-0-|

Gb|-------------------------7--7-7----------------------------------|
Db|-----------------------------------------------------------------|
Ab|--------3-3-3-33----55-55-55-5---------3-3-3-33-5555555555555-07-|
Eb|-5-5-55----------5--------------5-5-55---------------------------|

solo
Gb|-------------------------------------------------------------|
Db|--------------------10-----------(b9)------------7-------------| X3
Ab|-------------------------------------------------------------|
Eb|--0-0-0-0-0-0-7-8-8---8-8-8--7-7----7-7-7-5-5--------3-3-3---|

Gb|----------------------------------------------------------------------------|
Db|--------------------10-----------(b9)---------------4-5-7-7-7-7-7-5-4-2-------| 
Ab|----------------------------------------------------------------------------|
Eb|--0-0-0-0-0-0-7-8-8---8-8-8--7-7---7-7-7--55555555--------------------------|

Segunda parte solo (Wah Wah solo)
Gb|---------------------------------------------------|
Db|---------------------------------------------------| X3
Ab|-------------------------------------333-55--------|
Eb|--0-00-0-0-2-3-3-3-3-3--5-5-5-5-5-5----------------|

Gb|---------------------------------------------------|
Db|---------------------------------------------------| X1
Ab|------------------------------------3333-5555------|
Eb|--0-00-0-0-2-3-3-3-3-3--5-5-5-5--------------------|


Where Do We Go.....

"Aiaiaiaiaiaiaiaiaiaaaiaiaiaiaa Where do we go now"
Gb|----------------------------------------------------------------|
Db|----------------------------------------------------------------|
Ab|--------------------------------------------------3-3-3-3-5-5-5-|
Eb|-0-0-0-0-0-0-0-2-3-3-3-3-3-3-5-5-5-5-5-5-5-5-5-5----------------|

Gb|-------------------------------------------------------------|
Db|-------------------------------------------------------------| X2
Ab|-------------------------------------------33333----5555-----|
Eb|--0-00-0-0-0-2-3-3-3-3-3-3-3---5-5-5-5-5-5-------------------|


Gb|-------------------------------------------------------|
Db|-------------------------------------------------------| 
Ab|-------------------------------------------7-5---------|
Eb|--0-00-0-0-0-2-3-3-3-3-3-3-3--5-5-5-5-5-5-----7-6-5-3--|
                                          "No NO nO No no nO nooo"

"Sweet childddddddd aaaaaaaaaiaaaaaaaaaaaaaaaaaaaaaaa  o mineeeeeeeeeeeeeeeeee" 

Gb|-------------------------------------------------------------------|
Db|-------------------------------------------------------------------| 
Ab|----------------------------------------3333333--5555555-----------|
Eb|--0-00-0-0-0-2-3-3-3-3-3-3-3---5555555------------------------0~---|		   
AcordesyTabs.com © 2008 Acordes y Tablaturas para guitarra. Tabs and Chords for guitar. Aviso Legal - Contacto
El uso de este sitio está sujeto a la aceptación de los términos y condiciones (27 usuarios online)