tablaturas, partituras y acordes para guitarra
Busca por banda/artista:
 
y/o título de la canción:
A B C D E F G H I J K L M N O P Q R S T U V W X Y Z 0 1 2 3 4 5 6 7 8 9 / Top 100 tabs
Categorías
Usuarios
usuario:
Darse de alta
password:
Artistas más visitados
Publicidad
TOP acordes y tablaturas de Guitar hero


Estás en: Inicio > Letra G > Acordes y tablaturas de Guitar hero > Paranoid (guitar hero 3)
Paranoid (guitar hero 3)
de Guitar hero
Puntúa este acorde/tab:      
(0.8/5)
Reportar este acorde/tab
  Añadir a tus favoritos
  Imprimir
Intro:
 
-----------------------------------------
-----------------------------------------
-----------------------------------------
-----------------------12h14-------12----
-14----14----14--12h14-------12h14-----14
-12----12----12--------------------------

Verso:
 ____________________________ Palm Mute_________________________________
/                                                                        
|------------------------------------------------------------------------|-----------12
|------------------------------------------------------------------------|-----------12
|------------------------------------------------------------------------|-----------12
|------------------------------------------------------------------------|12-----------
|14-14-14-14-14-14-14-14-14-14-14-14-14-14-14-14--12-12-12-12-12-12-12-12|10-12--14----
|12-12-12-12-12-12-12-12-12-12-12-12-12-12-12-12--10-10-10-10-10-10-10-10|---10--12----

Verso 2:
 ____________________________ Palm Mute_________________________________
/                                                                        
|------------------------------------------------------------------------|-----------12
|------------------------------------------------------------------------|-----------12
|------------------------------------------------------------------------|12-11------12
|------------------------------------------------------------------------|12-10-------
|14-14-14-14-14-14-14-14-14-14-14-14-14-14-14-14--12-12-12-12-12-12-12-12|10-12--14----
|12-12-12-12-12-12-12-12-12-12-12-12-12-12-12-12--10-10-10-10-10-10-10-10|---10--12---

Parte 1:
---------------------------------------------------------------
---------------------------------------------------------------
---------------------------------------------------------------
---------------------------------------------------------------
14----10---12---14-14-14-14-14-14-14-14-14-14-14-14-14-14-14-14
12----8----10---12-12-12-12-12-12-12-12-12-12-12-12-12-12-12-12

Parte 2:
--------------------
--------------------
--------------------
--------------------
14----12----14----12
12----10----12----10

Fim:
------------------------------------------------------------------------------------
------------------------------------------------------------------------------------
------------------------------------------------------------------------------------
------------------------------------------------------------------------------------
14-14-14-14-14-14-14-14-14-14-14-14-14-14-14-14--12-12-12-12-12-12-12-12------------
12-12-12-12-12-12-12-12-12-12-12-12-12-12-12-12--10-10-10-10-10-10-10-10--10--3--0--

 [4x INTRO]

 [1x verso ]Finished with my woman cause she couldn't help me with my mind
 [1x verso ]People think I'm insane because I am frowning all the time
 
 [2x Parte 1]

 [ 1x verso ]All day long I think of things but nothing seems to satisfy
 [ 1x verso ]Think I'll lose my mind if I don't find something to pacify

 [ 1x Parte 2 ]Can you help me? Occupy my brain?

 [ 1x Verso ]
*[ 1x Verso 2 ]

 [ 1x verso ]I need someone to show me the things in life that I can't find
 [ 1x verso ]I can't see the things that make true happiness I must be blind

 [Solo]

 [ 2x Verso ]

 [ 1x verso ]Make a joke and I will sigh and you will laugh and I will cry
 [ 1x verso ]Happiness I cannot feel and love to me is so unreal

 [2x Parte 1]
 
 [ 1x verso ]And so as you hear these words telling you now of my state
 [ 1x verso ]I tell you to enjoy life I wish i could but it's too late

 [ 1x verso ]
 [ 1x Fim ]

Obs: Por trás do solo há uma guitarra número 2 fazendo o [verso] durante todo o solo. 
             
[ Solo By Michael James ] 
|------------------------------------------------------------
|------------------------------------------------------------
|------------------------------------------------------------
|-14^p12-14~~--14-12-14p12-----------------------------------
|--------------------------1412-10h12-10h12-------10--------
|--------------------------------------------10h12----12-12--

|--------------------------------------------------------------------
|--------------------------------------------------------------------
|--------------------------12-14-14^^^14-12h14-14^^^12-14--12--------
|------------12h14-14--/14------------------------------------14-14--
|10h12-12/14---------------------------------------------------------
|--------------------------------------------------------------------

|-----------------12-------------------15^-15^-15^^15--12-15p12-----
|---------------12--15-15^--15^--15-12--------------------------15--
|------------/14----------------------------------------------------
|-12h14-14-14-------------------------------------------------------
|-------------------------------------------------------------------
|-------------------------------------------------------------------

|-15p12----------------12----------------------------------------------
|-------15-15p12----12----15p12----------------------------------------
|----------------14^------------14-14p12----12-14^^p12---14^-12h14p12--
|----------------------------------------14----------------------------
|----------------------------------------------------------------------
|----------------------------------------------------------------------

|--------------------------------------------------------------------------
|--------------------------------------------------------------------------
|---12---------------------------------------------------12----------------
|-14---14-14p12------12------------------------12--12h14----14-12-14-12-14-
|---------------14--------12-10-12p10----12/14-----------------------------
|-------------------------------------12-----------------------------------		   
AcordesyTabs.com © 2008 Acordes y Tablaturas para guitarra. Tabs and Chords for guitar. Aviso Legal - Contacto
El uso de este sitio está sujeto a la aceptación de los términos y condiciones (32 usuarios online)