tablaturas, partituras y acordes para guitarra
Busca por banda/artista:
 
y/o título de la canción:
A B C D E F G H I J K L M N O P Q R S T U V W X Y Z 0 1 2 3 4 5 6 7 8 9 / Top 100 tabs
Categorías
Usuarios
usuario:
Darse de alta
password:
Artistas más visitados
Publicidad
TOP acordes y tablaturas de Guitar hero


Estás en: Inicio > Letra G > Acordes y tablaturas de Guitar hero > Black magic woman
Black magic woman
de Guitar hero
Puntúa este acorde/tab:      
(0.1/5)
Reportar este acorde/tab
  Añadir a tus favoritos
  Imprimir
intro  
G|-------------------------------------------------------------------------------------------- 
D|------7----------7----------7----------7----------7----------55-------55-5/7------ 
A|05--------5-5-05-5-----5-5-05-5-----5-5-05-5-----5-5-05-5-----5-5-5---5----5---5------55--55 
E|-------------------------------------------------------------------5--------5------------5-- 
   
------------------------------------| 
-------------55-----55-5/7-----7----| 
--55--55-5--5---5--5------55----5--| 
-5---5----5------5------------------| 
 
  verse  
G|----5575----5575--------------------5575----5575--------------------5575------------55757 
D|---7-------7--------5575----5575---7-------7----5---3353----3353---7--------5575---7----- 
A|5-------5----------7-------7----5-------5----------5-------5--------------7----5--------- 
E|----------------5-------5-------------------------------3-------5--------5--------------- 
 
  only use this ending on the 1st verse (use a long rest for the others) 
---55-----|  
--7--53---|  
-------5--|  
----------|		   
AcordesyTabs.com © 2008 Acordes y Tablaturas para guitarra. Tabs and Chords for guitar. Aviso Legal - Contacto
El uso de este sitio está sujeto a la aceptación de los términos y condiciones (28 usuarios online)