tablaturas, partituras y acordes para guitarra
Busca por banda/artista:
 
y/o título de la canción:
A B C D E F G H I J K L M N O P Q R S T U V W X Y Z 0 1 2 3 4 5 6 7 8 9 / Top 100 tabs
Categorías
Usuarios
usuario:
Darse de alta
password:
Artistas más visitados
Publicidad
TOP acordes y tablaturas de Guitar hero


Estás en: Inicio > Letra G > Acordes y tablaturas de Guitar hero > Rock you like a hurricane(guitar hero 3)
Rock you like a hurricane(guitar hero 3)
de Guitar hero
Puntúa este acorde/tab:      
(0.2/5)
Reportar este acorde/tab
  Añadir a tus favoritos
  Imprimir
I saw that there was only 1(!!!)basstab from the great teutonic hard 
rockers,so i decided to transcribe this one,who's one of my favourite.
It's a great song,very easy & funny to play!!!!There's probabily some 
erors,but u get the idea!!!

Fig1(intro)
|---------------------|G
|---------------------|D
|---------------------|A
|-0-0-0-0-0-0-0-0-0-0-|E

Fig2
|-------------------------|G
|-------------------------|D
|--7-7-7---------3-5-5----|A
|--------5-5-7-7----------|E

Fig3
|--------------------------------|G
|--------------------------------|D
|--3-3-3--7-7-7-7--3-3-3--7--5-5-|A
|--------------------------------|E

Fig4
|------------------------|G
|------------------------|D
|---3--7--3--7--5--5-----|A
|------------------------|E


Fig1(in with the drums)
Fig2(during the 1°guitar solo)
Fig3(in at "The bitch is hungry...")
Fig2(during the chorus)
Fig3/4(in at "My body's burning...")
Fig2(during the
     chorus & 2°guitar solo)
Fig3/4(in at "My body is burning...")
Fig2(during the chorus)		   
AcordesyTabs.com © 2008 Acordes y Tablaturas para guitarra. Tabs and Chords for guitar. Aviso Legal - Contacto
El uso de este sitio está sujeto a la aceptación de los términos y condiciones (34 usuarios online)