tablaturas, partituras y acordes para guitarra
Busca por banda/artista:
 
y/o título de la canción:
A B C D E F G H I J K L M N O P Q R S T U V W X Y Z 0 1 2 3 4 5 6 7 8 9 / Top 100 tabs
Categorías
Usuarios
usuario:
Darse de alta
password:
Artistas más visitados
Publicidad
TOP acordes y tablaturas de Guitar hero


Estás en: Inicio > Letra G > Acordes y tablaturas de Guitar hero > Rock you like a hurricane(guitar hero 3)
Rock you like a hurricane(guitar hero 3)
de Guitar hero
Puntúa este acorde/tab:      
(0.2/5)
Reportar este acorde/tab
  Añadir a tus favoritos
  Imprimir
intro: 
riff1
    E5          G5	       A5      C5   /  E5             G5	 A5       C5     D5
|-----------------------------------------------------------------------------------------|
|-----------------------------------------------------------------------------------------|	
|---(b9)-(b9)-(b9)----------------------5-5-----(b9)-(b9)-(b9)-------------------------5-----7-7------| (2X)
|---(b9)-(b9)-(b9)----5--5-----7--7-----5-5-----(b9)-(b9)-(b9)------5--5-----7--7------5-----7-5------|
|---7--7--7-----5--5-----7--7-----3-3-----7--7--7-------5--5-----7--7------3-----5-5------|
|---------------3--3-----5--5---------------------------3--3-----5--5---------------------|

    E5          G5       A5    C5   D5
|--------------------------------------|
|--------------------------------------|		(depois siga isso)
|---(b9)-(b9)-(b9)-------------2--2---5---7--|
|---(b9)-(b9)-(b9)----5--5-----2--2---5---7--|
|---7--7--7-----5--5-----0--0---3---5--|
|---------------3--3-------------------|

Riff2:                    (c/ alavanca)
e|----------------|-----5~~~~~~~~~~~~~~-|
B|-------------5--|---------------------|
G|---------7------|---------------------|
D|-----7----------|---------------------|
A|----------------|---------------------|
E|----------------|---------------------|

Riff3:
e|------|-----------------------|------------------|----------------------|
B|------|-----------------------|------------------|----------------------|
G|------|---------(b9)-(b9)-(b9)------|--------(b9)-7------|--------(b9)-(b9)-(b9)------|
D|------|---------(b9)-(b9)-(b9)------|--------(b9)-7------|--------(b9)-(b9)-(b9)------|
A|--3-3-|-3--3----7--7--7---3-3-|-3--3---7--5--3-3-|-3--3---7--7--7---3-3-|
E|------|-----------------------|------------------|----------------------|

e|-----------------------|-------------------|
B|-----------------------|-------------------|
G|---------7--7--7-------|--------7----------|
D|---------7--7--7-------|--------7----------|
A|--3--3---5--5--5---3-3-|-3--3---5----------|
E|-----------------------|-------------------|

Riff4:

e|--12-----12~~~~~~----|--------------------|
B|--15-----15~~~~~~----|--------------------|
G|---------------------|---------5---7--7---|
D|---------------------|--7--7---5---7--7---|
A|---------------------|--7--7---3---5--5---|
E|---------------------|--5--5--------------|

versos:
(riff1)
It's early morning
The sun comes out
Last night was shaking
(riff2)
And pretty loud
My cat is purring
And scratches my skin
So what is wrong
With another sin
(riff3)
The bitch is hungry
She needs to tell
So give her inches
And feed her well
More days to come
New places to go
I've got to leave
It's time for a show

(riff1)
Here I am, rock you like a hurricane
Here I am, rock you like a hurricane

e|-----------------------|-12---------12------12--|-------12--12---|
B|----------15~~~~~~~~~~-|-15~~~~---------15------|---15-----------|
G|-----------------------|------------------------|----------------|
D|-----------------------|------------------------|----------------|
A|-----------------------|------------------------|----------------|
E|-----------------------|------------------------|----------------|

e|-------------------------------|
B|-------------------------------|
G|----------------7--------------|
D|----------------7--------------|
A|--3---3---3-----5--------------|
E|-------------------------------|

(riff1)
My body is burning
It starts to shout
Desire is coming
(riff2)
It breaks out loud
Lust is in cages
Till storm breaks loose
Just have to make it
With someone I choose
(riff3)
The night is calling
I have to go
The wolf is hungry
He runs the show
He's licking his lips
He's ready to win
On the hunt tonight
For love at first sting

(riff1)
Here I am, rock you like a hurricane
Here I am, rock you like a hurricane
Here I am, rock you like a hurricane
Here I am, rock you like a hurricane
Rock you like a hurricane...

Solo:(Riff1 8x)

e|----------------------------------------------------|-------------------------|
B|-12h15p12h15p12h15p12--17p12--17p15p12--17p15p12h15-|-------------------------|
G|----------------------------------------------------|-X-----------------------|
D|----------------------------------------------------|-X-----------12-12-14-14-|
A|----------------------------------------------------|-------14-14-------------|
E|----------------------------------------------------|-------------------------|

e|-------------------------------------12-12-15-15-|-17--17-----------------------|
B|-------------12-12-------12-12-15-15-------------|---------15--15-12--12--------|
G|-12-12-14-14-------14-14-------------------------|------------------14--14-12---|
D|-------------------------------------------------|---------------------------14-|
A|-------------------------------------------------|------------------------------|
E|-------------------------------------------------|------------------------------|

e|----------------------------------|---------------------------|
B|-14-14-------14-14-------14-12----|---------------------------|
G|-14-14-12----14-14-12----14-12-12-|-----0---2---4----4~~~~~~--|
D|----------14----------14----------|-14----2---2---2-----------|
A|----------------------------------|---------------------------|
E|----------------------------------|---------------------------|

e|-----------------------------------------------|------10h12p10-----
B|------3h5p3-----5h8p5-----8h10p8------12h15p12-|-12----------------
G|--4---------7---------(b9)---------14------------|-------------------
D|-----------------------------------------------|-------------------
A|-----------------------------------------------|-------------------
E|-----------------------------------------------|-------------------

e|------12h15p12------15h17p15------19h22p1(b9)|-------22---------------|
B|-15------------17------------22------------|--22------22~~~~----22--|
G|-------------------------------------------|------------------------|
D|-------------------------------------------|------------------------|
A|-------------------------------------------|------------------------|
E|-------------------------------------------|------------------------|

e|----------------------------------------|-------22--22~~~~~---|
B|-22-------------------------------20-22-|-22~~----------------|
G|-------------------------1(b9)20-21-------|---------------------|
D|----------------1(b9)20-21----------------|---------------------|
A|---------1(b9)22--------------------------|---------------------|
E|----------------------------------------|---------------------|

e|--15/17---------------17----------17-1(b9)20-22-|-22---22---22--22--22--1(b9)|
B|--------------15---------17-1(b9)20-------------|--------------------------|
G|--12/14---14-------14-------------------------|--------------------------|
D|----------------------------------------------|--------------------------|
A|----------------------------------------------|--------------------------|
E|----------------------------------------------|--------------------------|

e|-22-20-1(b9)---20-1(b9)------19h20p1(b9)-------------------|
B|----------22-------22-20----------22-20--------------|
G|----------------------------------------14-16-14-----|
D|-------------------------------------------------17--|
A|-----------------------------------------------------|
E|-----------------------------------------------------|

It's early morning
The sun comes out
Last night was shaking
And pretty loud
My cat is purring
It scratches my skin
So what is wrong
(riff3)
With another sin
The night is calling
I have to go
The wolf is hungry
He runs to show
He's licking his lips
He's ready to win
On the hunt tonight
For love at first sting

(riff1)
Here I am, rock you like a hurricane
Here I am, rock you like a hurricane
Here I am, rock you like a hurricane
Here I am, rock you like a hurricane
Here I am
(riff4)
O REFRÃO é igual a introdução		   
AcordesyTabs.com © 2008 Acordes y Tablaturas para guitarra. Tabs and Chords for guitar. Aviso Legal - Contacto
El uso de este sitio está sujeto a la aceptación de los términos y condiciones (39 usuarios online)