tablaturas, partituras y acordes para guitarra
Busca por banda/artista:
 
y/o título de la canción:
A B C D E F G H I J K L M N O P Q R S T U V W X Y Z 0 1 2 3 4 5 6 7 8 9 / Top 100 tabs
Categorías
Usuarios
usuario:
Darse de alta
password:
Artistas más visitados
Publicidad
TOP acordes y tablaturas de Guitar hero


Misirlou
de Guitar hero
Puntúa este acorde/tab:      
(0.2/5)
Reportar este acorde/tab
  Añadir a tus favoritos
  Imprimir
(This song is played extremely fast)
          Verse 1
e|------------------------------------------------
B|------------------------------------------------
G|------------------------------------------------
D|------------------------------------------------
A|------------------------------------------------
e|-12-0-0-0-0-0-0-0-0-0-0-0-0-0-0-0-0-0-0-0-0-0-

-----------------------------------------------------
-----------------------------------------------------
-----------------------------------------------------
-----------------------------------------------------
-----------------------------------------------------
-1-1-1-4-4-4-5-5-5-7-7-7-7-7-7/11-8-7-7-7-7-7-7-7--

--------------------------------------------------------
--------------------------------------------------------
--------------------------------------------------------
--------------------------------------------------------
--------------------------------------------------------
-0-0-0-0-0-0-0-0-0-0-1-1-1-4-4-4-5-5-5-7-7-7-7-7-7/11-8-

-------------------------------------------------------------------
-------------------------------------------------------------------
-------------------------------------------------------------------
-------------------------------------------------------------------
-------------------------------------------------------------------
-7-7-7-7-7-7-7-7-7-7-7-7-8-7-8-7-7-5-7-5-4-1-4-4-4-4-4-4-4-4-4-4-

-----------------------------------------------
-----------------------------------------------
-----------------------------------------------
-----------------------------------------------
-----------------------------------------------
-7-5-7-5-4-5-4-5-4-1-0-0-0~~~~~~~~~~~~~~~~~~~~~

              Verse 2
-12-0-0-0-0-0-0-0-0-0-0-0-0-0-0-0-0-0-0-0-0-0
-----------------------------------------------
-----------------------------------------------
-----------------------------------------------
-----------------------------------------------
-----------------------------------------------

-1-1-1-4-4-4-5-5-5-7-7-7-7-7-7/11-8-7-7-7-7-7-7--
---------------------------------------------------
---------------------------------------------------
---------------------------------------------------
---------------------------------------------------
---------------------------------------------------

-0-0-0-0-0-0-0-0-0-0-1-1-1-4-4-4-5-5-5-7-7-7-7-7-7/11-8-
--------------------------------------------------------
--------------------------------------------------------
--------------------------------------------------------
--------------------------------------------------------
--------------------------------------------------------

-7-7-7-7-7-7-7-7-7-7-7-7-8-7-8-7-7-5-7-5-4-1-4-4-4-4-4-4-4-4-4-
-----------------------------------------------------------------
-----------------------------------------------------------------
-----------------------------------------------------------------
-----------------------------------------------------------------
-----------------------------------------------------------------

-7-5-7-5-4-5-4-5-4-1-0-0-0~~~~~~~~~~~~~~~~~~~~~
-----------------------------------------------
-----------------------------------------------
-----------------------------------------------
-----------------------------------------------
-----------------------------------------------

    :Key:
~ let note ring
/ slide up
 slide down

Order: Verse 1
       Verse 2
       Trumpet Solo
       Solo
       Verse 2		   
AcordesyTabs.com © 2008 Acordes y Tablaturas para guitarra. Tabs and Chords for guitar. Aviso Legal - Contacto
El uso de este sitio está sujeto a la aceptación de los términos y condiciones (26 usuarios online)