tablaturas, partituras y acordes para guitarra
Busca por banda/artista:
 
y/o título de la canción:
A B C D E F G H I J K L M N O P Q R S T U V W X Y Z 0 1 2 3 4 5 6 7 8 9 / Top 100 tabs
Categorías
Usuarios
usuario:
Darse de alta
password:
Artistas más visitados
Publicidad
TOP acordes y tablaturas de Guitar hero


Even flow
de Guitar hero
Puntúa este acorde/tab:      
(0.1/5)
Reportar este acorde/tab
  Añadir a tus favoritos
  Imprimir
Tom: D

Riff Intro:
         
E | ---------------------------------- | 
B | -----------------------5--7------- | 
G | -----------------------5--7------- | 
D | -----------------------5--7------- |    
A | -----------------------3--5------- | 
E | –-8-slide-3-slide-5--------------- | 

RIFF 1
E | ---------------------------------- | 
B | ---------------------------------- | 
G | -----------------------5--7------- | 
D | -----------------------5--7------- |    
A | -----------------------3--5------- | 
E | –-8-slide-3-slide-5--------------- | 


RIFF 2                         
E | ------------------------------------- | 
B | ----------------------3-3------3----- | 
G | --7-5-----------------2-2------2----- | 
D | ------7-6-5-0-3-5-----0-0------0----- |  
A | ---------------------------3-0------- | 
E | –------------------------------------ | 

INTRODUCAO:Riff intro (tres vezes) + riff 2

Riff 1
Freezin', rests his head on a pillow made of concrete, again
Oh, Feelin' maybe he'll see a little better set a days, ooh yeah
Oh, hand out, faces that he sees time again ain't that familiar, ooh yeah
Oh, dark grin, he can't help, when he's happy looks insane, oh yeah

Riff Intro + Riff 2

D5  C5  Bb5                     D5   C5
Even flow,  thoughts arrive like butterflies
    D5    C5    Bb5                      D5     C5
Oh, he don't know, so he chases them away, yeah...ooh...
     D5   C5    Bb5                  D5   C5       D5   C5       D5   C5
Oh, someday yet, he'll begin his life again...life again...life again...

Riff 1

Kneelin', looking through the paper though he doesn't know to read, ooh yeah

Oh, prayin', now to something that has never showed him anything

Oh, feelin', understands the weather of the winters on its way

Oh, ceilings, few and far between all the legal halls of shame, yeah...


D5  C5   Bb5                      D5    C5
Even flow, thoughts arrive like butterflies
    D5    C5    Bb5                      D5     C5
Oh, he don't know, so he chases them away, yeah...ooh...
    D5   C5   Bb5                   D5    C5       
Oh, someday yet, he'll begin his life again
     D5    C5     Bb                        D5     C5     D5    C5    D5   C5
Oh, whispering hands, gently lead, lead him away...him away, him away...

Riff 4
A | -3-3-3-4-4-4-5-5-5-5-5-5-5-5---- | 

Yeah!  Woo...ah yeah...fuck it up...

D5  C5  Bb5                      D5   C5
Even flow, thoughts arrive like butterflies
    D5   C5    Bb5                      D5     C5
Oh, he don't know, so he chases them away, yeah...ooh...
     D5   C5    Bb5                   D5    C5       
Oh, someday yet, he'll begin his life again
     D5   C5    Bb5                  D5     C5     D5    C5    D5   C5
Oh, whispering hands, gently lead, lead him away...him away, him away...

Riff 4
Yeah!  Woo...uh huh...yeah, yeah, mommy, mommy...

Riff Final
E | ---------------------------------- | 
B | ---------------------------------- | 
G | --12-10----10--------------------- |     3x
D | --------12----12--10-10-10-10----- | 
A | ---------------------------------- | 
E | ---------------------------------- | 

E | ---------------------------------- | 
B | ----------------------------12---- | 
G | --12-10----10---------------12---- |   
D | --------12----12--10-10-12—-12---- | 
A | ---------------------------------- | 
E | ---------------------------------- |  		   
AcordesyTabs.com © 2008 Acordes y Tablaturas para guitarra. Tabs and Chords for guitar. Aviso Legal - Contacto
El uso de este sitio está sujeto a la aceptación de los términos y condiciones (26 usuarios online)