tablaturas, partituras y acordes para guitarra
Busca por banda/artista:
 
y/o título de la canción:
A B C D E F G H I J K L M N O P Q R S T U V W X Y Z 0 1 2 3 4 5 6 7 8 9 / Top 100 tabs
Categorías
Usuarios
usuario:
Darse de alta
password:
Artistas más visitados
Publicidad
TOP acordes y tablaturas de Guitar hero


Estás en: Inicio > Letra G > Acordes y tablaturas de Guitar hero > Rock and roll all night (guitar hero iii)
Rock and roll all night (guitar hero iii)
de Guitar hero
Puntúa este acorde/tab:      
(0.8/5)
Reportar este acorde/tab
  Añadir a tus favoritos
  Imprimir
intro:

G-4h6-4h6---4h6-6-------|-----------------------------------------
D---------6-------6-----|----------1-1------------------1-1-------
A-----------------------|--------------3-1-0----------------3-1-0-
E-----------------------|-44-3-1-0------------44-3-1-0------------

verso:

G---------------------------------------------------------------4h6-4h6---4h6-6--------
D----------1-1----------------1-1-----------------1-1-------------------6-------6------
A--------------3-1-0--------------3-1-0--44-3-1-0-----3-1-0----------------------------
E-44-3-1-0-----------44-3-1-0----------------------------------------------------------

G---------------------------------------------------------------4h6-4h6---4h6-6--------
D----------1-1----------------1-1-----------------1-1-------------------6-------6------
A--------------3-1-0--------------3-1-0--44-3-1-0-----3-1-0----------------------------
E-44-3-1-0-----------44-3-1-0----------------------------------------------------------

you keep on shouting...hey you keep on shouting:
G------------------
D-2222/444---------
A------------------
E----------1/2h----

refrão:

G---------------------------
D--------------------------- <-- 2x
A----44-3-1--66-4-3-1-0-----
E-4h--------------------4---

G------------------
D-2222/444---------
A------------------
E----------1/2h----

verso 2:

G---------------------------------------------------------------4h6-4h6---4h6-6--------
D----------1-1----------------1-1-----------------1-1-------------------6-------6------
A--------------3-1-0--------------3-1-0--44-3-1-0-----3-1-0----------------------------
E-44-3-1-0-----------44-3-1-0----------------------------------------------------------

G---------------------------------------------------------------4h6-4h6---4h6-6--------
D----------1-1----------------1-1-----------------1-1-------------------6-------6------
A--------------3-1-0--------------3-1-0--44-3-1-0-----3-1-0----------------------------
E-44-3-1-0-----------44-3-1-0----------------------------------------------------------

you keep on shouting...hey you keep on shouting:
G------------------
D-2222/444---------  <-- 2x
A------------------
E----------1/2h----

refrão:

G---------------------------          
D---------------------------  <-- 2x  
A----44-3-1--66-4-3-1-0-----
E-4h--------------------4---

G-4h6-4h6---4h6-6------
D---------6-------6----
A----------------------
E----------------------

no solo faça:

G---------------------------------------------------------------
D----------1-1----------------1-1-----------------1-1-----------
A--------------3-1-0--------------3-1-0--44-3-1-0-----3-1-0/----
E-44-3-1-0-----------44-3-1-0-----------------------------------

G-----------------------------------
D-12h14-12h14----14-12--------------
A-------------14------14-13-12-10/--
E-----------------------------------

G---------------------------------------------------------------4h6-4h6---4h6-6--------
D----------1-1----------------1-1-----------------1-1-------------------6-------6------
A--------------3-1-0--------------3-1-0--44-3-1-0-----3-1-0----------------------------
E-44-3-1-0-----------44-3-1-0----------------------------------------------------------

you keep on shouting...hey you keep on shouting:
G------------------
D-2222/444---------
A------------------
E----------1/2h----		   
AcordesyTabs.com © 2008 Acordes y Tablaturas para guitarra. Tabs and Chords for guitar. Aviso Legal - Contacto
El uso de este sitio está sujeto a la aceptación de los términos y condiciones (10 usuarios online)