tablaturas, partituras y acordes para guitarra
Busca por banda/artista:
 
y/o título de la canción:
A B C D E F G H I J K L M N O P Q R S T U V W X Y Z 0 1 2 3 4 5 6 7 8 9 / Top 100 tabs
Categorías
Usuarios
usuario:
Darse de alta
password:
Artistas más visitados
Publicidad
TOP acordes y tablaturas de The strokes


Red light
de The strokes
Puntúa este acorde/tab:      
(0.6/5)
Reportar este acorde/tab
  Añadir a tus favoritos
  Imprimir
Verso

  Guitarra 1
||-------------------------|-------------------------|-------------------------|---------------------|
||----------12----------11-|----------12----------11-|----------12----------11-|----------12---------|
||----8-11--------8-11-----|----8-11--------8-11-----|----8-11--------8-11-----|----8-11--------8-11-|
||-(b9)----------(b9)----------|-(b9)----------(b9)----------|-(b9)----------(b9)----------|-(b9)----------(b9)------|
||-------------------------|-------------------------|-------------------------|---------------------|
||-------------------------|-------------------------|-------------------------|---------------------|
||
||Guitarra 2
||-------------------------|-------------------------|-------------------------|---------------------|
||--12----------11---------|-12------------11--------|-12------------11--------|-12----------11------|
||--------11----------11---|--------11----------11---|--------11----------11---|-------11---------11-|
||-------------------------|-------------------------|-------------------------|---------------------|
||-------------------------|-------------------------|-------------------------|---------------------|
||-------------------------|-------------------------|-------------------------|---------------------|

|------------------|------------------|------------------|------------------|
|------------------|------------------|------------------|------------------|
|-(b9)-8-(b9)-8-(b9)-8---|-(b9)-8-(b9)-8-(b9)-8---|-(b9)-8-(b9)-8-(b9)-8---|-(b9)--------8------|
|------------------|------------------|------------------|----8-(b9)11----11--|
|------------------|------------------|------------------|------------------|
|------------------|------------------|------------------|------------------|

|------------------|------------------|------------------|---------6-7--6---|
|-(b9)-7-(b9)-7-(b9)-7---|-(b9)-7-(b9)-7-(b9)-7---|-(b9)-7-(b9)-7-(b9)-7---|-(b9)-7-(b9)----------|
|------------------|------------------|------------------|------------------|
|------------------|------------------|------------------|------------------|
|------------------|------------------|------------------|------------------|
|------------------|------------------|------------------|------------------|

|------------------|------------------|------------------|------------------||
|------------------|------------------|------------------|------------------||
|-(b9)-8-(b9)-8-(b9)-8---|-(b9)-8-(b9)-8-(b9)-8---|-(b9)-8-(b9)-8-(b9)-8---|-11---------------||
|------------------|------------------|------------------|-11---------------||
|------------------|------------------|------------------|-(b9)---------------||
|------------------|------------------|------------------|------------------||

|------------------|------------------|------------------|------------------||
|-(b9)-7-(b9)-7-(b9)-7---|-(b9)-7-(b9)-7-(b9)-7---|-(b9)-7-(b9)-7-(b9)-7---|-11---------------||
|------------------|------------------|------------------|------------------||
|------------------|------------------|------------------|------------------||
|------------------|------------------|------------------|------------------||
|------------------|------------------|------------------|------------------||

Refrão

||--------14-------14---|--------16-------16--|--------1(b9)------1(b9)--|-------1(b9)------1(b9)-|
||----------------------|---------------------|----------------------|--------------------|
||-/15-15----15-15------|-/16-16----16-16-----|-/20-20----20-20------|-20-20----20-20-----|
||----------------------|---------------------|----------------------|--------------------|
||----------------------|---------------------|----------------------|--------------------|
||----------------------|---------------------|----------------------|--------------------|

||--------14---------14-|--------12--------12-|--------14--------14-|--------14--------14-|
||----------------------|---------------------|---------------------|---------------------|
||-11-11-----11-11------|-13-13-----13-13-----|-16-16-----16-16-----|-16-16-----16-16-----|
||----------------------|---------------------|---------------------|---------------------|
||----------------------|---------------------|---------------------|---------------------|
||----------------------|---------------------|---------------------|---------------------|

|--------14-------14---|--------16-------16--|--------11-------11--|-------11-------11---|
|----------------------|---------------------|---------------------|---------------------|
|-/15-15----15-15------|-/16-16----16-16-----|-/11-11----11-11-----|-11-11----11-11------|
|----------------------|---------------------|---------------------|---------------------|
|----------------------|---------------------|---------------------|---------------------|
|----------------------|---------------------|---------------------|---------------------|

|---------14--------14-|--------12--------12-|----------7-------7--|----------7-------7--|
|----------------------|---------------------|---------------------|---------------------|
|--11-11-----11-11-----|-13-13-----13-13-----|--8--8------8--8-----|--8--8------8--8-----|
|----------------------|---------------------|---------------------|---------------------|
|----------------------|---------------------|---------------------|---------------------|
|----------------------|---------------------|---------------------|---------------------|

|--------14-------14---|--------16-------16--|--------1(b9)------1(b9)-|-------1(b9)------1(b9)--||
|----------------------|---------------------|---------------------|---------------------||
|-/15-15----15-15------|-/16-16----16-16-----|-/20-20----20-20-----|-20-20----20-20------||
|----------------------|---------------------|---------------------|---------------------||
|----------------------|---------------------|---------------------|---------------------||
|----------------------|---------------------|---------------------|---------------------||

|---------14-------14--|---------12-------12-|---------14-------14-|--------14--------14-||
|----------------------|---------------------|---------------------|---------------------||
|-/11-11----11-11------|--13-13-----13-13----|-16-16-----16-16-----|-16-16-----16-16-----||
|----------------------|---------------------|---------------------|---------------------||
|----------------------|---------------------|---------------------|---------------------||
|----------------------|---------------------|---------------------|---------------------||

||------(b9)---------------|-------------------|--------------------|-------------------||
||-------------11-----11-|---(b9)------(b9)----(b9)|------------------7-|-------------------||
||-9h11---11-(b9)---(b9)-----|-(b9)---(b9)8----8-----|----8------8--------|----8------8-------||
||------------------11---|---------------(b9)--|-(b9)---(b9)-8----8-6---|-(b9)---(b9)-8----8-6-||
||-----------------------|-------------------|--------------------|-------------------||
||-----------------------|-------------------|--------------------|-------------------||

||-----------------------|-------------------|--------------------|-------------------||
||-----------------------|-------------------|--------------------|-------------------||
||-11--------------------|-(b9)----------------|--------------------|-------------------||
||-11--------------------|-(b9)----------------|-(b9)-----------------|-------------------||
||-(b9)--------------------|-7-----------------|-(b9)-----------------|-------------------||
||-----------------------|-------------------|-7------------------|-------------------||

  Guitarra 1
||------(b9)---------------|-------------------|--------------------|-------------------|
||-------------11-----11-|---(b9)------(b9)----(b9)|------------------7-|-------------------|
||-9h11---11-(b9)---(b9)-----|-(b9)---(b9)8----8-----|----8------8--------|----8------8-------|
||------------------11---|---------------(b9)--|-(b9)---(b9)-8----8-6---|-(b9)---(b9)-8----8-6-|
||-----------------------|-------------------|--------------------|-------------------|
||-----------------------|-------------------|--------------------|-------------------|

||Guitarra 2
||-----------------------|-------------------|--------------------|-------------------|
||-----------------------|-------------------|--------------------|-------------------|
||-11--------------------|-(b9)----------------|--------------------|-------------------|
||-11--------------------|-(b9)----------------|-(b9)-----------------|-------------------|
||-(b9)--------------------|-7-----------------|-(b9)-----------------|-------------------|
||-----------------------|-------------------|-7------------------|-------------------|

Guitarra 1
|--------------------|--------------------|--------------------|--------------------|
|------------------7-|------------------7-|------------------7-|--------------------|
|----8------8--------|----8------8--------|----8------8--------|----8------8--------|
|-(b9)---(b9)-8----8-6---|-(b9)---(b9)-8----8-6---|-(b9)---(b9)-8----8-6---|-(b9)---(b9)-8----8-6--|
|--------------------|--------------------|--------------------|--------------------|
|--------------------|--------------------|--------------------|--------------------|

|------------------7-|---------------------|--------------------|--------------------|
|----(b9)-----(b9)-------|----(b9)-----(b9)-----9-|------------------7-|--------------------|
|-(b9)---(b9)-8----8-6---|-(b9)---(b9)-8----8-6----|----8------8--------|----8------8--------|
|--------------------|---------------------|-(b9)---(b9)-8----8-6---|-(b9)---(b9)-8----8-6--|
|--------------------|---------------------|--------------------|--------------------|
|--------------------|---------------------|--------------------|--------------------|

|------(b9)---------------|--------------------|---------------------|--------------------||
|-------------11-----11-|---(b9)------(b9)----(b9)-|------------------7--|--------------------||
|-9h11---11-(b9)---(b9)-----|-(b9)---(b9)8----8------|----8------8---------|----8------8--------||
|------------------11---|---------------(b9)---|-(b9)---(b9)-8----8-6----|-(b9)---(b9)-8----8-6--||
|-----------------------|--------------------|---------------------|--------------------||
|-----------------------|--------------------|---------------------|--------------------||

2x
||-11----11----11----11-----|
||---11----11----11----11---|
||-----11----11----11----11-|
||--------------------------|
||--------------------------|
||--------------------------|

||--------------------------|
||--------------------------|
||--------------------------|
||---------(b9)---8-----------|
||-6--(b9)6----6----6--(b9)-----|
||--------------------------|

2x
|-12----12----12----12-----|
|---12----12----12----12---|
|-----13----13----13----13-|
|--------------------------|
|--------------------------|
|--------------------------|

|--------------------------|
|--------------------------|
|--------------------------|
|----------11----(b9)--------|
|-7--11-7-----7----6--11---|
|--------------------------|

2x
|-11----11----11----11-----|
|---11----11----11----11---|
|-----11----11----11----11-|
|--------------------------|
|--------------------------|
|--------------------------|

|--------------------------|
|--------------------------|
|--------------------------|
|---------(b9)---8-----------|
|-6--(b9)6----6----6--(b9)-----|
|--------------------------|

|-14----14----14----14----14----14----14----14-----||
|---14----14----14----14----14----14----14----14---||
|-----15----15----15----15----15----15----15----15-||
|--------------------------------------------------||
|--------------------------------------------------||
|--------------------------------------------------||

|--------------------------------------------------||
|--------------------------------------------------||
|--------------------------------------------------||
|--------------------------------------------------||
|-(b9)------------------(b9)-----7-----------6-----4---||
|--------------------------------------------------||		   
AcordesyTabs.com © 2008 Acordes y Tablaturas para guitarra. Tabs and Chords for guitar. Aviso Legal - Contacto
El uso de este sitio está sujeto a la aceptación de los términos y condiciones (30 usuarios online)