tablaturas, partituras y acordes para guitarra
Busca por banda/artista:
 
y/o título de la canción:
A B C D E F G H I J K L M N O P Q R S T U V W X Y Z 0 1 2 3 4 5 6 7 8 9 / Top 100 tabs
Categorías
Usuarios
usuario:
Darse de alta
password:
Artistas más visitados
Publicidad
TOP acordes y tablaturas de Guitar hero


Slow ride
de Guitar hero
Puntúa este acorde/tab:      
(0.6/5)
Reportar este acorde/tab
  Añadir a tus favoritos
  Imprimir
{RIFF 1} 
 
E|------------------------------------------------------------------| 
B|------------------------------------------------------------------| 
G|-2--2--2----7--5---2---2--2--2--2---2--2----7---5---2--2--2--2--2-| 
D|-2--2--2----7--5---2---2--2--2--2---2--2----7---5---2--2--2--2--2-| 
A|-0--------5----3---0------------0---------5-----3---0-------------| 
E|------------------------------------------------------------------| 
  Slow Ride               Take it Easy (Repeat Riff 1 two more times) 
 
  {THEN RIFF 2} 
 
E|-------------------------------------------------------------------| 
B|-------------------------------------------------------------------| 
G|----2-----2-----2--2----2---2--2--2------2--2-----2--2--2--2--2--2-| 
D|-2--2--2--2--2--4--4----4---4--4--4---2--2--2--2--2--4--4--4--4--4-| 
A|-0-----0-----0------------------------0--------0-------------------| 
E|-------------------------------------------------------------------| 
  I'm in the mood                       The Rythm is right 
(repeat Riff 2 for) Move to the Music   We can roll all night (then..) 
 
E|-------------------------------------------------------------------| 
B|-1---------------3-------------------------------------------------| 
G|-2---------------2---------------2----------2-----2---------2----2-| 
D|-2---------------4----------2----2-----2----2-----2----2----2----2-| 
A|-0---------------0----------0----------0----------------0----------| 
E|-------------------------------------------------------------------| 
  (AM) Ooh       (D/A)        Slow  ride 
 
E|-------------------------------------------------------------------| 
B|---------------------------------------------1-----------3---------| 
G|-----2-----2---------------2-----------------2-----------2---------| 
D|-2---2-----2---------2-----2------2----------2-----------4---------| 
A|-0-------------------0------------0----------0-----------0---------| 
E|-------------------------------------------------------------------| 
 (Then back to Riff 1 two times)             (AM)        (D/A)   THEN 
 
  {RIFF 3} 
 
E|-------------------------------------------------------------------| 
B|-------3--3----------3--3------------------------------------------| 
G|-2--2--2--2----2--2--2--2------2---2--------2---2-------2----2-----| 
D|-2--2--4--4----2--2--4--4---2--2---2---2----2---2---2---2----2---0-| 
A|-0--0--0--0----0--0--0--0---0----------0------------0--------------| 
E|-------------------------------------------------------------------| 
  Slow down     Go down       Got to get your loving one more time 
 
E|-----------------------------------------------------------------| 
B|---------3----3----------3--3------------------------------------| 
G|-2---2---2----2----2--2--2--2------------------------------------| 
D|-2---2---4----4----2--2--4--4---5---3-----------------------2~~~-| 
A|-0---0---0----0----0--0--0--0-----------5---3---5s---10---0~~~~--| 
E|-----------------------------------------------------------8-----| 
  Hold me           Roll me      Slow ridin' woman you're so fine 
 
  (then) 
E|-5s3s5~~-------------------------5s3s5~~------------------------| 
B|--------5s3s5~--------5------------------5s3s5~--------5--------| 
G|---------------6s4s6~----6b---------------------6s4s6~----6b----| 
D|-----------------------------7~~------------------------------7-| 
A|----------------------------------------------------------------| 
E|----------------------------------------------------------------| 
 
  (Then) 
 
E|----------------5----------------------------10--8--10b--8-----| 
B|------------------------------------------10----------------10-| 
G|----6--7--8--9~---7br-6b--------6-7-8-9~-----------------------| 
D|-7-----------------------7~---7--------------------------------| 
A|---------------------------------------------------------------| 
E|---------------------------------------------------------------| 
(Then Riff 1 two times) Slow Ride  Take it easy 
(Then Riff 3) Slow down Go down got to get your loving one more time 
(Then Riff 4) Hold me Roll me Slow ridin' woman you're so fine 
 
  (Here's a part after Got to get your loving one more time) 
 
E|-17-------17--------17--------17----------17s21---17-------------| 
B|-----17--------17-------17----------17------------------17---15--| 
G|-----------------------------------------------------------------| 
D|-----------------------------------------------------------------| 
A|-----------------------------------------------------------------| 
E|-----------------------------------------------------------------|		   
AcordesyTabs.com © 2008 Acordes y Tablaturas para guitarra. Tabs and Chords for guitar. Aviso Legal - Contacto
El uso de este sitio está sujeto a la aceptación de los términos y condiciones (23 usuarios online)