tablaturas, partituras y acordes para guitarra
Busca por banda/artista:
 
y/o título de la canción:
A B C D E F G H I J K L M N O P Q R S T U V W X Y Z 0 1 2 3 4 5 6 7 8 9 / Top 100 tabs
Categorías
Usuarios
usuario:
Darse de alta
password:
Artistas más visitados
Publicidad
TOP acordes y tablaturas de Cky
:: Fat f - Cky


Estás en: Inicio > Letra C > Acordes y tablaturas de Cky > 96 quit bitter beings
96 quit bitter beings
de Cky
Puntúa este acorde/tab:      
(0.2/5)
Reportar este acorde/tab
  Añadir a tus favoritos
  Imprimir
CKY-96 quite bitter beings 
Tabber Damion 
AIM another idiot 88 
 
 
|------------------------------------------------------| 
|------------------------------------------------------| 
|------4-----------4-5-4---------------7-5--4-2-0-2>4-0| 
|---5-----------5---------5-4-------5------------------| 
|7--------7---7---------------5--3---------------------| 
|---------0--------------------------------------------| 
 
 
|---------------------| 
|---------------------| 
|--9-9-9--------------| 
|--9-9-9-9/-11-11-11--| 
|--7-7-7-9/-11-11-11--| 
|--7-7-7-7/-9--9--9---| 
 
|-0-0-0-0-0-0---------| 
|-0-0-0-0-0-0---------| 
|-0-0-0-0-0-0---------| 
|-9-9-9-9-7-7---------| 
|-7-7-7-7-5-5---------| 
|-0-0-0-0-0-0---------| 
 
|-------------------------------------------------| 
|-------------------------------------------------| 
|-------------------------------------------------| 
|--7--7--7---12--9---2-2----5-5-5--12--9--2-2-| 
|--5--5--5---10--7---2-2----3-3-3--10--7--2-2-| 
|----------------------0-0--0-----------------0-0-|
		   
AcordesyTabs.com © 2008 Acordes y Tablaturas para guitarra. Tabs and Chords for guitar. Aviso Legal - Contacto
El uso de este sitio está sujeto a la aceptación de los términos y condiciones (33 usuarios online)