tablaturas, partituras y acordes para guitarra
Busca por banda/artista:
 
y/o título de la canción:
A B C D E F G H I J K L M N O P Q R S T U V W X Y Z 0 1 2 3 4 5 6 7 8 9 / Top 100 tabs
Categorías
Usuarios
usuario:
Darse de alta
password:
Artistas más visitados
Publicidad
TOP acordes y tablaturas de Cky
:: Fat f - Cky


Estás en: Inicio > Letra C > Acordes y tablaturas de Cky > Arriving tony hawk bucky lasek
Arriving tony hawk bucky lasek
de Cky
Puntúa este acorde/tab:      
(1.1/5)
Reportar este acorde/tab
  Añadir a tus favoritos
  Imprimir
arriving tony hawk bucky lasek jesse fritch kevin staab 
 
 
viva la bam 1st episode 1st season 
 
 
TRANSCRIBED BY RUDY GUZMAN 
 
 
guzman84@hotmail.com 
 
 
e:---------------------------------------| 
B:-----9-----9---9-----9----12-12--11-11-| 
G:-----9-----9---9-----9----12-12--11-11-| 
D:-9-9-9-9-9-9-9-9-9-9-9-9--12-12--11-11-| 
A:-7-7-7-7-7-7-7-7-7-7-7-7--10-10--9--9--| 
E:---------------------------------------| 
 
e:---------------------------------------| 
B:-----9-----9---9-----9----12-12--11-11-| 
G:-----9-----9---9-----9----12-12--11-11-| 
D:-9-9-9-9-9-9-9-9-9-9-9-9--12-12--11-11-| 
A:-7-7-7-7-7-7-7-7-7-7-7-7--10-10--9--9--| 
E:---------------------------------------| 
 
e:---------------------------------------| 
B:-----9-----9---9-----9----12-12--11-11-| 
G:-----9-----9---9-----9----12-12--11-11-| 
D:-9-9-9-9-9-9-9-9-9-9-9-9--12-12--11-11-| 
A:-7-7-7-7-7-7-7-7-7-7-7-7--10-10--9--9--| 
E:---------------------------------------| 
 
e:---------------------------------------| 
B:-----9-----9---9-----9----12-12--11-11-| 
G:-----9-----9---9-----9----12-12--11-11-| 
D:-9-9-9-9-9-9-9-9-9-9-9-9--12-12--11-11-| 
A:-7-7-7-7-7-7-7-7-7-7-7-7--10-10--9--9--| 
E:---------------------------------------| 
 
e:---------------------------------------| 
B:-----9-----9---9-----9----12-12--11-11-| 
G:-----9-----9---9-----9----12-12--11-11-| 
D:-9-9-9-9-9-9-9-9-9-9-9-9--12-12--11-11-| 
A:-7-7-7-7-7-7-7-7-7-7-7-7--10-10--9--9--| 
E:---------------------------------------| 
 
e:-----------------------------------------------------| 
B:-------17------------17----17-------17--12-12--11-11-| 
G:----------------------------------------12-12--11-11-| 
D:-14-14------14-14-14----14----14-14-----12-12--11-11-| 
A:----------------------------------------10-10--9--9--| 
E:-----------------------------------------------------| 
 
e:-----------------------------------------------------| 
B:-------17------------17----17-------17--12-12--11-11-| 
G:----------------------------------------12-12--11-11-| 
D:-14-14------14-14-14----14----14-14-----12-12--11-11-| 
A:----------------------------------------10-10--9--9--| 
E:-----------------------------------------------------| 
 
e:-----------------------------------------------------| 
B:-------17------------17----17-------17--12-12--11-11-| 
G:----------------------------------------12-12--11-11-| 
D:-14-14------14-14-14----14----14-14-----12-12--11-11-| 
A:----------------------------------------10-10--9--9--| 
E:-----------------------------------------------------| 
 
e:-----------------------------------------------------| 
B:-------17------------17----17-------17--12-12--11-11-| 
G:----------------------------------------12-12--11-11-| 
D:-14-14------14-14-14----14----14-14-----12-12--11-11-| 
A:----------------------------------------10-10--9--9--| 
E:-----------------------------------------------------| 
 
e:-----------------------------------------------------| 
B:-------17------------17----17-------17--12-12--11-11-| 
G:----------------------------------------12-12--11-11-| 
D:-14-14------14-14-14----14----14-14-----12-12--11-11-| 
A:----------------------------------------10-10--9--9--| 
E:-----------------------------------------------------|
		   
AcordesyTabs.com © 2008 Acordes y Tablaturas para guitarra. Tabs and Chords for guitar. Aviso Legal - Contacto
El uso de este sitio está sujeto a la aceptación de los términos y condiciones (23 usuarios online)