tablaturas, partituras y acordes para guitarra
Busca por banda/artista:
 
y/o título de la canción:
A B C D E F G H I J K L M N O P Q R S T U V W X Y Z 0 1 2 3 4 5 6 7 8 9 / Top 100 tabs
Categorías
Usuarios
usuario:
Darse de alta
password:
Artistas más visitados
Publicidad
TOP acordes y tablaturas de Cky
:: Fat f - Cky


Estás en: Inicio > Letra C > Acordes y tablaturas de Cky > Attached at the hip
Attached at the hip
de Cky
Puntúa este acorde/tab:      
(0.7/5)
Reportar este acorde/tab
  Añadir a tus favoritos
  Imprimir
Im not really sure what the tuning is, its really low it might be (B,A,D,G) or (D,A,D,G) try them both and see what goes better!

/= slide down


Tabbed by: Matt Fortuna


Intro/Main Riff                                      x4
--------------------------------------------------------
--------------------------------------------------------
--1-1-1-1--1---1-----------4-4---4/6--------------------
-------------4-----1-4-1-4-----4------------------------

Verse                                                x3
---------------------------------------------------------
---------------------------------------------------------
--1-1---1---1-1---1---1-1--1-1--1-----1-1---1---1-1---1--
---------------------------------------------------------

Chorus                                               x4
--------------------------------------------------------
--------------------------------------------------------
--1-1--1-1--1---------------4-4----4/6------------------
--------------4-1---1-4-1-4------4----------------------

Then play the verse again

Bridge
---------------6-----------------------------------------
-------------6-------------------------------------------
--1-1-1----4---------------------------------------------
-----------------2-2-2-----------------------------------

--------------------------------------------------------
--------------------------------------------------------
--------------------------------------------------------
--1-1-1---4-4-4---5-5-5---------------------------------

Then play the intro again


Thats all I tabbed out, so enjoy! Rate this Tab
		   
AcordesyTabs.com © 2008 Acordes y Tablaturas para guitarra. Tabs and Chords for guitar. Aviso Legal - Contacto
El uso de este sitio está sujeto a la aceptación de los términos y condiciones (27 usuarios online)