tablaturas, partituras y acordes para guitarra
Busca por banda/artista:
 
y/o título de la canción:
A B C D E F G H I J K L M N O P Q R S T U V W X Y Z 0 1 2 3 4 5 6 7 8 9 / Top 100 tabs
Categorías
Usuarios
usuario:
Darse de alta
password:
Artistas más visitados
Publicidad
TOP acordes y tablaturas de Cky
:: Fat f - Cky


Estás en: Inicio > Letra C > Acordes y tablaturas de Cky > Basement skating
Basement skating
de Cky
Puntúa este acorde/tab:      
(0.8/5)
Reportar este acorde/tab
  Añadir a tus favoritos
  Imprimir
ramp basement song on cky4 
 
 
 
cky 
 
 
 
tabbed by Rudy Guzman 
 
 
 
guzman84@hotmail.com 
 
this song appears after the song eat my fuk, its when bam margera is skating in his basement on a small
white ramp that looks like 2 feet high, i think its at the first 5 minutes of the cky4 video.
and well like i said before its between "eat my ***" and a fight that some guy is telling them 
that the parking lot is private propety and it ends up fighting with this other guy that is telling 
him "you leave!, we are not leaving". 
repeat 
E|--3-------------------3-------- 
B|--3---4-4--6--6--4-4--3-------- 
G|--4---5-5--7--7--5-5--4-------- 
D|--5---5-5--7--7--5-5--5-------- 
A|--5---3-3--5--5--3-3--5-------- 
E|--3-------------------3-------- 
 
verse 
 2 times  
E|-3-3-3-3-3-3-3-3--0-0-0-0-0-0-0----- 
B|-3-3-3-3-3-3-3-3--0-0-0-0-0-0-0----- 
G|-4-4-4-4-4-4-4-4--1-1-1-1-1-1-1----- 
D|-5-5-5-5-5-5-5-5--2-2-2-2-2-2-2----- 
A|-5-5-5-5-5-5-5-5--2-2-2-2-2-2-2----- 
E|-3-3-3-3-3-3-3-3--0-0-0-0-0-0-0----- 
 
 
E|-0--2-2-2--0-0-0--2-2-2------------------------- 
B|-2--3-3-3--2-2-2--3-3-3------------------------- 
G|-2--2-2-2--2-2-2--2-2-2------------------------- 
D|-2--0-0-0--2-2-2--0-0-0------------------------- 
A|-0---------0-0-0-------------------------------- 
E|------------------------------------------------ 
 
 
E|-3-3-3-3-3-3-3-3--0-0-0-0-0-0-0----- 
B|-3-3-3-3-3-3-3-3--0-0-0-0-0-0-0----- 
G|-4-4-4-4-4-4-4-4--1-1-1-1-1-1-1----- 
D|-5-5-5-5-5-5-5-5--2-2-2-2-2-2-2----- 
A|-5-5-5-5-5-5-5-5--2-2-2-2-2-2-2----- 
E|-3-3-3-3-3-3-3-3--0-0-0-0-0-0-0----- 
 
 
E|-0--0--0-0-0--0--0--0--0-0-0-0------2-2--2-2-2---- 
B|-2--2--2-2-2--2--2--2--2-2-2-2------3-3--3-3-3---- 
G|-2--2--2-2-2--2--2--2--2-2-2-2------2-2--2-2-2---- 
D|-2--2--2-2-2--2--2--2--2-2-2-2------0-0--0-0-0---- 
A|-0--0--0-0-0--0--0--0--0-0-0-0-------------------- 
E|-------------------------------------------------- 
 
 
E|-0-0-0--2-2-2--0-0-0---------------- 
B|-2-2-2--3-3-3--2-2-2--4--6---------- 
G|-2-2-2--2-2-2--2-2-2--5--7---------- 
D|-2-2-2--0-0-0--2-2-2--5--7---------- 
A|-0-0-0---------0-0-0--3--5---------- 
E|------------------------------------ 
 
 
E|-3-3-3-3-3-3-3-3--0-0-0-0-0-0-0----- 
B|-3-3-3-3-3-3-3-3--0-0-0-0-0-0-0----- 
G|-4-4-4-4-4-4-4-4--1-1-1-1-1-1-1----- 
D|-5-5-5-5-5-5-5-5--2-2-2-2-2-2-2----- 
A|-5-5-5-5-5-5-5-5--2-2-2-2-2-2-2----- 
E|-3-3-3-3-3-3-3-3--0-0-0-0-0-0-0----- 
 
i dont know who wrote this song or what, so this was the only place could submit it, but one 
thing i know is that i heard this song before, luis miguel cover this song
		   
AcordesyTabs.com © 2008 Acordes y Tablaturas para guitarra. Tabs and Chords for guitar. Aviso Legal - Contacto
El uso de este sitio está sujeto a la aceptación de los términos y condiciones (23 usuarios online)