tablaturas, partituras y acordes para guitarra
Busca por banda/artista:
 
y/o título de la canción:
A B C D E F G H I J K L M N O P Q R S T U V W X Y Z 0 1 2 3 4 5 6 7 8 9 / Top 100 tabs
Categorías
Usuarios
usuario:
Darse de alta
password:
Artistas más visitados
Publicidad
TOP acordes y tablaturas de Cky
:: Fat f - Cky


Estás en: Inicio > Letra C > Acordes y tablaturas de Cky > Chad's in hi fi
Chad's in hi fi
de Cky
Puntúa este acorde/tab:      
(1.1/5)
Reportar este acorde/tab
  Añadir a tus favoritos
  Imprimir
By Deron Miller 
From Volume1 
Tab by JohnHoux 
 
Tuning: 1 Step Down (Lowto High: D G C F A D) 
 
Main Riff 4x 
--------------------------------- 
--------------------------------- 
--------------------------------- 
--------------------------------- 
-------5---------8---7---5---7--- 
-7-7-5---7-5-7-5---7---7---7---7- 
 
Verse 4x 
 
----------------------------------------------------------------- 
----------------------------------------------------------------- 
----------------------------------------------------------------- 
----------------------------------------------------------------- 
-----------------------------5-7--------------------------------- 
-7---7-5-7-5-7-5-7---7-5-7-5-----7---7-5-7-5-7-5-7---7-5-7-4-7-3- 
 
I can't deny it all my life 
Is just a token of my eye 
Something you would try 
 
For the best in the obsene 
You just look on your TV screen 
To pass away the while 
 
It doesn't matter if you're 
Red, black, or in the sack 
I've got my grip I've got a hold 
 
But nothing ties one down like 
Prime time in Hi-Fi 
But now it's getting old 
 
Chorus 
The chorus is made up of playing Riff1 three times and Riff2 once 
 
Riff 1 3x 
 
 B5      D5     A5     E5 
--------------------------------- 
--------------------------------- 
--------------------------------- 
---9---9-----------7---7--------- 
-------------5-5--------/9-7-5--- 
-7---7-----------5---5---------7- 
 
Riff 2 1x 
 
 B5      D5     F#5     A5 
--------------------------------- 
--------------------------------- 
--------------------------------- 
---9---9------------------------- 
-------------5-5/9--/9--/9-7-5--- 
-7---7-------------------------7- 
 
People stop and stare 
Here, there and everywhere 
They've got the blueprints for life 
 
If you keep pretending 
The world is ending 
 
Chorus Riff 2 
 
 B5      D5     F#5     A5 
--------------------------------- 
--------------------------------- 
--------------------------------- 
---9---9------------------------- 
-------------5-5/9--/9--/9-7-5--- 
-7---7-------------------------7- 
Then you'll be fictionized 
 
Verse Riff 4x with lyrics 
 
So stop the human drive 
The fierce power switching on the 
Ripe adolescent light 
Terminates in five 
 
The people standing in the lines 
Have seen the film a million times  
With a pocket full of dimes 
 
So unless it is for free 
You'll spin the country on its side 
To be intensified 
 
Chorus 
 
People stop and stare 
Here, there and everywhere 
They've got the blueprints for life 
 
If you keep pretending 
The world is ending 
Then you'll be fictionized 
 
Bridge 
 
It's on this tv 
It's on the tv 
 
Main Riff 6x 
 
It's on your tv 
It's on the tv 
It's on his tv 
It's on her tv 
It's on his tv 
It's on your tv screen!!! 
 
Chorus (Don'tsing the first half) 
And you keep pretending 
The world is ending 
And you'll be fictionized 
 
Chorus 
 
Solo (Duringthe second half of this Chorus) 
 
----------------------------- 
----------------------10--12- 
-4---7-6---9-7---9-11-------- 
----------------------------- 
----------------------------- 
----------------------------- 
 
Verse 2x 
 
Outro 2x 
 
----------------------------------------------------------------- 
----------------------------------------------------------------- 
----------------------------------------------------------------- 
----------------------------------------------------------------- 
-----------------------------5-6-7---7-5-7-5-7-5-7---7-5-7-5-7-8- 
-7---7-5-7-5-7-5-7---7-5-7-5------------------------------------- 
 
End on a B5 chord
		   
AcordesyTabs.com © 2008 Acordes y Tablaturas para guitarra. Tabs and Chords for guitar. Aviso Legal - Contacto
El uso de este sitio está sujeto a la aceptación de los términos y condiciones (17 usuarios online)