tablaturas, partituras y acordes para guitarra
Busca por banda/artista:
 
y/o título de la canción:
A B C D E F G H I J K L M N O P Q R S T U V W X Y Z 0 1 2 3 4 5 6 7 8 9 / Top 100 tabs
Categorías
Usuarios
usuario:
Darse de alta
password:
Artistas más visitados
Publicidad
TOP acordes y tablaturas de Cky
:: Fat f - Cky


Estás en: Inicio > Letra C > Acordes y tablaturas de Cky > Derons freestyle
Derons freestyle
de Cky
Puntúa este acorde/tab:      
(0.5/5)
Reportar este acorde/tab
  Añadir a tus favoritos
  Imprimir
e----------------------------------- 
b----------------------------------- 
g----------------------------------- 
d----------------------------------- 
a----------------------------------- 
e---------------------2-0-0---2-0-0- 
 
e----------------------------------------------------------------- 
b----------------------------------------------------------------- 
g----------------------------------------------------------------- 
d----5--7p5------------------------4--5p4p0----/9-7-5-4-5------- 
a-7---------7p5----------------/5--------------2------------------ 
e-0-------------2-0-0---2-0-0------------------------------------- 
 
e----------------------------------------------------------------- 
b----------------------------------------------------------------- 
g----------------------------------------------------------------- 
d-9--5--7p5------------------------4--5p4p0----/9-7-5-4-5------- 
a-7---------7p5----------------/5--------------2------------------ 
e---------------2-0-0---2-0-0------------------------------------- 
 
e----------------------------------------------------------------- 
b----------------------------------------------------------------- 
g----------------------------7-11/12--------------------7-11/12--- 
d----5--7p5--------------7h9------------------------7h9----------- 
a-7---------7p5--------------------------------------------------- 
e---------------2-0-0----------------7-0-0---7-0-0---------------- 
 
e----------------------------------------------------------------- 
b----------------------------------------------------------------- 
g--------------------7-11/12---------------------7-11/12---------- 
d----------------7h9-------------------------7h9------------------ 
a----------------------------------------------------------------- 
e-7-0-0---7-0-0---------------7-0-0---7-0-0----------------------- 
 
e----------------------------------------------------------------- 
b----------------------------------------------------------------- 
g--------------------7-11/12---------------------7-11/12---------- 
d----------------7h9-------------------------7h9------------------ 
a----------------------------------------------------------------- 
e-7-0-0---7-0-0---------------7-0-0---7-0-0----------------------- 
 
e----------------------------------------------------------------- 
b----------------------------------------------------------------- 
g--------------------7-11/12---------------------7-11-------7-11-- 
d----------------7h9-------------------------7h9--------7h9------- 
a----------------------------------------------------------------- 
e-7-0-0---7-0-0---------------7-0-0---7-0-0-----------------------
		   
AcordesyTabs.com © 2008 Acordes y Tablaturas para guitarra. Tabs and Chords for guitar. Aviso Legal - Contacto
El uso de este sitio está sujeto a la aceptación de los términos y condiciones (56 usuarios online)