tablaturas, partituras y acordes para guitarra
Busca por banda/artista:
 
y/o título de la canción:
A B C D E F G H I J K L M N O P Q R S T U V W X Y Z 0 1 2 3 4 5 6 7 8 9 / Top 100 tabs
Categorías
Usuarios
usuario:
Darse de alta
password:
Artistas más visitados
Publicidad
TOP acordes y tablaturas de Cky
:: Fat f - Cky


Estás en: Inicio > Letra C > Acordes y tablaturas de Cky > Destination undefined
Destination undefined
de Cky
Puntúa este acorde/tab:      
(0.2/5)
Reportar este acorde/tab
  Añadir a tus favoritos
  Imprimir
CKY (foriegn objects) 
Destination Undefined  
half step down 
 
intro (O-22s) 
e------------------------------------------------------------------------------------- 
b------------------------------------------------------------------------------------- 
g-----------------7-9-7-------------------------4------------------7-9-7-------------- 
d-------------7-9------9-7-------------------4-6-6-4------------7-9-----9-7----------- 
a-0~-----9~----------------9-----0~--------6--------6---0~---9~------------9--0~------ 
e----0~-----------------------------0~--4~----------------0~--------------------0~-4~- 
 
(22-49s) 
------------------------------------------ 
------------------------------------------ 
------------------------------------------ 
-----4-6-4-------------------------------- 
-4-6-------6-4-6-------6-4-6-------------- 
-----------------4-6-4------4-6-4-6-4-2--- 
 
(49-1:O2) 
something like this    x=played certain amount of times... 
------------------:----------------------- 
------------------:----------------------- 
------------------:-9x--2x--7x--0x-------- 
------------------:----------------------- 
-9x--2x--7x--0x---:----------------------- 
------------------:----------------------- 
 
(1:O3-1:19) 
not sure of this part..but its somthing like this  
------------------------------------------ 
------------------------------------------ 
----------7------------------------------- 
-----7h5-5--7h5------7-7h5----7----------- 
-7h5------------7h5-5-----7h5------------- 
------------------------------------------ 
 
then back to this part 
------------------------------------------ 
------------------------------------------ 
------------------------------------------ 
-----4-6-4-------------------------------- 
-4-6-------6-4-6-------6-4-6-------------- 
-----------------4-6-4------4-6-4-6-4-2--- 
 
play this a bit slower 
------------------: 
------------------: 
------------------: 
------------------: 
-9x--2x--7x--0x---: 
------------------: 
 
then this fast type part 
------------------:----------------------- 
------------------:----------------------- 
------------------:-9x--2x--7x--ox-------- 
------------------:----------------------- 
-9x--2x--7x--0x---:----------------------- 
------------------:----------------------- 
 
solo ending kinda like this 
 
----------------------------------------------------------------------------- 
----------------------------------------------------------------------------- 
------------------------------7h9---9h7-------------------------------------- 
--------------------------7h9----------9h7----------------------------------- 
--0-7-5-7h9-9h7-7p-0--7h9-----------------9h7-0-7/9-7---------------------- 
----------------------------------------------------------------------------- 
cant finish the rest now..but the rest is like around the same patterns with the 
hammers and slides around the 9's and 7's ..heh
		   
AcordesyTabs.com © 2008 Acordes y Tablaturas para guitarra. Tabs and Chords for guitar. Aviso Legal - Contacto
El uso de este sitio está sujeto a la aceptación de los términos y condiciones (36 usuarios online)