tablaturas, partituras y acordes para guitarra
Busca por banda/artista:
 
y/o título de la canción:
A B C D E F G H I J K L M N O P Q R S T U V W X Y Z 0 1 2 3 4 5 6 7 8 9 / Top 100 tabs
Categorías
Usuarios
usuario:
Darse de alta
password:
Artistas más visitados
Publicidad
TOP acordes y tablaturas de Cky
:: Fat f - Cky


Estás en: Inicio > Letra C > Acordes y tablaturas de Cky > Disengage the simulator
Disengage the simulator
de Cky
Puntúa este acorde/tab:      
(1.1/5)
Reportar este acorde/tab
  Añadir a tus favoritos
  Imprimir
Band: 
 
Bassist: Chad Ginsburg (Studio), Vern Zaborowski (Live)
Bass Tab


Verse
--------------------------------  ----  --------------------------------------------
--------------------------------  ----  --------------------------------------------
---------------------7-------6- (x2)  -777777-555555-333333-555555-
00000---00---00---000----  ----  --------------------------------------------

Chorus
------------------------------------------------
------------------------------------------------
-0-76-0-760-7976-0------5*---4*---3*-
------------------------------------------------

(* = let ring)

Order:
Main Riff x4
Chorus x4

After the first chorus instead of repeating the riff pattern, you play the riff like this
once: 

--------------- ---------------------------------  --------------------------------------------
--------------- ---------------------------------  --------------------------------------------
--------------- ----------------------7-------6- -777777-555555-333333-555555--
0000-----00- -00000---00---00---000----  -------------------------------------------

then go back to main riff stylee.

So now the order is:
New Riff x1
Main Riff x3
Chorus x4

After the second chorus, you play the main riff again without the neet thing at the 
end, like this: 

---------------
---------------
--------------- (x2)
00000---00-

then go back to main riff stylee.

-------------------------------- --------------------------------------------
-------------------------------- --------------------------------------------
---------------------7-------6- -777777-555555-333333-555555-
00000---00---00---000---- --------------------------------------------

-------------------------------- --------------------------------------------
-------------------------------- --------------------------------------------
---------------------7-------6- -777777-555555-333333-555555-
00000---00---00---000---- --------------------------------------------

Then, you just trail off till the end of the song, like so:

-------------------------------------------
-------------------------------------------
-333333-555555-333333-555555-
-------------------------------------------

--------------------------------------------
--------------------------------------------
-777777-555555-333333-555555-
-------------------------------------------

-------------------------------------------
-------------------------------------------
-333333-555555-333333-555555-
-------------------------------------------

--------------------------------------------
--------------------------------------------
-777777-555555-333333-555555-
-------------------------------------------

-------------------------------------------
-------------------------------------------
-333333-555555-333333-555555-
-------------------------------------------... fin.


CKY is the greatest band to rock the new millenium, and DTS and To All Of You are
tops on my list of CKY songs. I just thought this song deserved another tab version.

This is my first tab, soComments and ratings would be greatly appreciated, if you view and
play this tab and you're a member, please rate it! E-mail all comments to
goodbeertires@hotmail.com.

Thanks, and enjoy.
		   
AcordesyTabs.com © 2008 Acordes y Tablaturas para guitarra. Tabs and Chords for guitar. Aviso Legal - Contacto
El uso de este sitio está sujeto a la aceptación de los términos y condiciones (49 usuarios online)