tablaturas, partituras y acordes para guitarra
Busca por banda/artista:
 
y/o título de la canción:
A B C D E F G H I J K L M N O P Q R S T U V W X Y Z 0 1 2 3 4 5 6 7 8 9 / Top 100 tabs
Categorías
Usuarios
usuario:
Darse de alta
password:
Artistas más visitados
Publicidad
TOP acordes y tablaturas de Cky
:: Fat f - Cky


Estás en: Inicio > Letra C > Acordes y tablaturas de Cky > Dissengage the simulator
Dissengage the simulator
de Cky
Puntúa este acorde/tab:      
(0.2/5)
Reportar este acorde/tab
  Añadir a tus favoritos
  Imprimir
Dissengage the Simulator- Cky      (D G C F A D) 
 
Intro/verses 
|-----------------------------------------|--------------------------------------|-----------------------------------------| 
|-----------------------------------------|--------------------------------------|-----------------------------------------| 
|-----------------------------------------|--------------------------------------|---------6-6-8-8-------8-8-10-10--| 
|-4-444---4---44-------4------3-----|---------4-4-6-6-------6-6-8-8---|---8-8-------------6-6----------------| 
|-4-444-4-----44-----4--4--1---4---|---6-6-------------4-4-------------|-----------------------------------------| 
|-2-222--------22---2----------------|---------------------------------------|----------------------------------------| 
                                                 (Deron)                                 (Chad) 
 
chorus 
|----------------------------------------------------------------|----------------| 
|----------------------------------------------------------------|----------------| 
|-----------------------------------------9-------9------11---|----------------| 
|-4-4---2h4-2----2--2/7-6-4------6--6---6--6---8------|----------------| 
|-4-4------------4----------------6-7-------7------9--------|----------------| 
|-2-2----------------------------------------------------------|--2-222-22--|
		   
AcordesyTabs.com © 2008 Acordes y Tablaturas para guitarra. Tabs and Chords for guitar. Aviso Legal - Contacto
El uso de este sitio está sujeto a la aceptación de los términos y condiciones (47 usuarios online)