tablaturas, partituras y acordes para guitarra
Busca por banda/artista:
 
y/o título de la canción:
A B C D E F G H I J K L M N O P Q R S T U V W X Y Z 0 1 2 3 4 5 6 7 8 9 / Top 100 tabs
Categorías
Usuarios
usuario:
Darse de alta
password:
Artistas más visitados
Publicidad
TOP acordes y tablaturas de Cky
:: Fat f - Cky


Eat my
de Cky
Puntúa este acorde/tab:      
(0.8/5)
Reportar este acorde/tab
  Añadir a tus favoritos
  Imprimir
CKY 
 
 
 
song eat my *** 
 
cky4 
 
tabbed by Rudy Guzman 
 
 
guzman84@hotmail.com 
 
 
eb------------------------------------------------------| 
Bb------------------------------------------------------| 
Gb------------------------------------------------------| 
Db------------------------------------------------------| 
Ab-----5/4-----5/7-----5/4-------------5/4-----5/7------| 
Eb-0-0-3/2-0-0-3/5-0-0-3/2-0-0-3-2-0-0-3/2-0-0-3/5-0-0--| 
 
 
eb--------------------| 
Bb--------------------| 
Gb--------------------| 
Db---6----5----4----3-| 
Ab---5----4----3----2-| 
Eb-5----4----3----2---| 
 
verse 
eb------------------------------------------------------| 
Bb------------------------------------------------------| 
Gb------------------------------------------------------| 
Db------------------------------------------------------| 
Ab-----5/4-----5/7-----5/4-------------5/4-----5/7------| 
Eb-0-0-3/2-0-0-3/5-0-0-3/2-0-0-3-2-0-0-3/2-0-0-3/5-0-0--| 
 
eb--------------------| 
Bb--------------------| 
Gb--------------------| 
Db---6----5----4----3-| 
Ab---5----4----3----2-| 
Eb-5----4----3----2---| 
 
i heard this song on the cky4 so there was only 30 secs of this song there
		   
AcordesyTabs.com © 2008 Acordes y Tablaturas para guitarra. Tabs and Chords for guitar. Aviso Legal - Contacto
El uso de este sitio está sujeto a la aceptación de los términos y condiciones (42 usuarios online)