tablaturas, partituras y acordes para guitarra
Busca por banda/artista:
 
y/o título de la canción:
A B C D E F G H I J K L M N O P Q R S T U V W X Y Z 0 1 2 3 4 5 6 7 8 9 / Top 100 tabs
Categorías
Usuarios
usuario:
Darse de alta
password:
Artistas más visitados
Publicidad
TOP acordes y tablaturas de Cky
:: Fat f - Cky


Estás en: Inicio > Letra C > Acordes y tablaturas de Cky > Escape from hellveiw
Escape from hellveiw
de Cky
Puntúa este acorde/tab:      
(0.9/5)
Reportar este acorde/tab
  Añadir a tus favoritos
  Imprimir
Song: Escape From Hellveiw 
Album: Infiltrate Destroy Rebuild 
Tabbed by: Craig Gibson 
Email: IbanezRgr320@hotmail.com 
 
RIFF 1                                  
|---------------------------------------------------------------------| 
|---------------------------------------------------------------------| 
|-------------------------------------------------7---9------7-8------| 
|-----9-------9-10-------5-4-7-5-----5--9---7-9----------9---------9--| 
|-------7-------------------------7-------5-----5---5--5---5-----6---6| 
|-0-0-----0-0-------0-0-----------------------------------------------| 
 
VERSES   
-|----------------------------------------------------------------------------------| 
-|----------------------------------------------------------------------------------| 
-|------12-11-12-11---------9-11-----11-12------12-11-12-11--------9-11----11-12----| 
-|------------------12--------------------12---------------12-10--------------------| 
-|----------------------------------------------------------------------------------| 
-|-0-------------------8---------7-----------0----------------8---------7-----------| 
 
PRE-CHORUS 1  
-|----------------------------------------------------------------------------| 
-|----------------------------------------------------------------------------| 
-|----------------------------------------------------------------------------| 
-|---------------------------5-55-55-55-5--4-444--77--------------------------| 
-|-2-22-22-22-22-22-2-22-22--3-33-33-33-3--2-222--55-55-----------------------| 
-|-0-00-00-00-00-00-0-00-00--------------------------33-----------------------| 
 
BRIDGE Guitar 1       
-|----------------------------------------------------------------------------| 
-|----------------------------------------------------------------------------| 
-|-----5--------5-6------------------------5-------5-6----------------8-------| 
-|-------3---------------6-5-8-6---6---------3---------------6-5-8-6--8-------| 
-|-------------------------------8------------------------------------6-------| 
-|-1-1-----1-1-------1-1---------------1-1-----1-1------1-1-------------------| 
 
BRIDGE Guitar 2 
-|----------------------------------------------------------------------------| 
-|----------------------------------------------------------------------------| 
-|-----------------------------------------------------------------------8----| 
-|-----10--------10-11-----6-5-8-6---6------10--------10-11-----6-5-8-6--8----| 
-|-8-8----8--8-8-------8-8---------8----8-8----8--8-8-------8-8----------6----| 
-|----------------------------------------------------------------------------|
		   
AcordesyTabs.com © 2008 Acordes y Tablaturas para guitarra. Tabs and Chords for guitar. Aviso Legal - Contacto
El uso de este sitio está sujeto a la aceptación de los términos y condiciones (52 usuarios online)