tablaturas, partituras y acordes para guitarra
Busca por banda/artista:
 
y/o título de la canción:
A B C D E F G H I J K L M N O P Q R S T U V W X Y Z 0 1 2 3 4 5 6 7 8 9 / Top 100 tabs
Categorías
Usuarios
usuario:
Darse de alta
password:
Artistas más visitados
Publicidad
TOP acordes y tablaturas de Cky
:: Fat f - Cky


Estás en: Inicio > Letra C > Acordes y tablaturas de Cky > Flesh in to gear
Flesh in to gear
de Cky
Puntúa este acorde/tab:      
(0.2/5)
Reportar este acorde/tab
  Añadir a tus favoritos
  Imprimir
Flesh Into Gear
Album: Infiltrate destroy rebuild
Bassist: Vern
Tabbed: HenryFlitton
Tuning: drop 1 step
Listen for timing

Enjoi

Intro
F |---------------------------------------------------------------|
C |---------------------------------------------------------------|
G |----------------------------3-3-5-5-5-5-5-5-5-5-5-5-5-5-5-5-3-3|
D |1-1-1-1-1-1-1-1-1-1-1-1-1-1------------------------------------|

Verse
F |---------------------------------------------------------------|
C |---------------------------------------------------------------|
G |----------------------------3-3-5-5-5-5-5-5-5-5-5-5-5-5-5-5-3-3|
D |1-1-1-1-1-1-1-1-1-1-1-1-1-1------------------------------------|

Chorus
F |---------------------------------------------------------------|
C |---------------------------------------------------------------|
G |---------------------------------------------------------------|
D |6-6-6-6-6-6-6-6-6-6-6-6-6-6-5-5-5-5-5-5-5-5-5-5-5-5-5-5-5-5-5-5|

Instrumental
F |----------------------------------------------------5-7-----
C |7-5---------7-5---5---5-7-5-----------7-5---5---5-7---------
G |----5-5---------8---8-------8-3-3---------8---8---------5-5-
D |------------------------------------------------------------

F ------------------------------------------------------------------
C 7-5---5---5-7-5-----------------------3-2-------7-5---5---5-7-5---
G ----8---8-------8-3-3----3-5-3-------3-----1-1------8--—8------8--
D -----------------------5-------5-3-1------------------------------

F ------------------5-7-------------------------------------------5-7
C -----7-5---5--5-7----------7-5---5---5-7-5--------7-5---5---5-7----
G 3-3------8--8---------5-5------8---8-------8-3-3------8---8--------
D -------------------------------------------------------------------

F -------------------------------------------------------------------
C -----7-5---5---5-7-5------------------------3-2-------7-5---5---5-7
G 5-5------8---8-------8-3-3----3-5-3-------3-----1-1-------8---8----
D ----------------------------5-------5-3-1--------------------------

F ------------------------5-7----------------------------------------
C 5---------7-5---5---5-7-----------7-5---5---5-7-5---------7-5---5--
G --8-3-3-------8---8---------5-5-------8---8-------8-3-3-------8---8
D -------------------------------------------------------------------

F ----5-7--------------------|
C 5-7------5-7--3-5----------|
G -------------------5-3-----|
D -----------------------5-3-|

Tabbed by HenryFlitton
This is my first tab but I’m pretty sure most of it is correct
please e-mail anycorrections to henry.flitton@ntlworld.com
		   
AcordesyTabs.com © 2008 Acordes y Tablaturas para guitarra. Tabs and Chords for guitar. Aviso Legal - Contacto
El uso de este sitio está sujeto a la aceptación de los términos y condiciones (37 usuarios online)