tablaturas, partituras y acordes para guitarra
Busca por banda/artista:
 
y/o título de la canción:
A B C D E F G H I J K L M N O P Q R S T U V W X Y Z 0 1 2 3 4 5 6 7 8 9 / Top 100 tabs
Categorías
Usuarios
usuario:
Darse de alta
password:
Artistas más visitados
Publicidad
TOP acordes y tablaturas de Cky
:: Fat f - Cky


Estás en: Inicio > Letra C > Acordes y tablaturas de Cky > Foreign objects # 10
Foreign objects # 10
de Cky
Puntúa este acorde/tab:      
(0.3/5)
Reportar este acorde/tab
  Añadir a tus favoritos
  Imprimir
CKY - Foreign Objects #10 tablature 
 album: Vol. 2 
 
 intro palm muted, play four times:  
 
-|-----------------------------------------------------|- 
-|-----------------------------------------------------|- 
-|--7-7--8--7-7-7--8--7-7--7--7--8----7-7-7--8--7-7--8-|- 
-|--6-6--7--6-6-6--7--6-6--6--6--7----6-6-6--7--6-6--7-|- 
-|--5-5--6--5-5-5--6--5-5--5--5--6----5-5-5--6--5-5--6-|- 
-|--4-4--5--4-4-4--5--4-4--4--4--5----4-4-4--5--4-4--5-|- 
 
 
 
-|------------------------------|- 
-|------------------------------|- 
-|--7-7--7--7-7-7--7-7--7-7-7---|- 
-|--6-6--6--6-6-6--6-6--6-6-6---|- 
-|--5-5--5--5-5-5--5-5--5-5-5---|- 
-|--4-4--4--4-4-4--4-4--4-4-4---|- 
 
 
Main riff, played twice: 
 
-|----------------------------------------------|- 
-|----------------------------------------------|- 
-|-----------5----------------------------------|- 
-|-7-----5-7----7---5---3-5---3---3/5--3---3/5--|- 
-|-5--------------------------3--------3--------|- 
-|----------------------------1--------1--------|- 
                                               
Second part of main riff: 
 
-|---------------------------------------------|- 
-|---------------------------------------------|- 
-|---------------------------------------------|- 
-|-7---------3------5---3-5---3---3/5--3---3/5-|- 
-|-5-----3-5----5-------------3--------3-------|- 
-|----------------------------1--------1-------|- 
 
Main again: 
 
-|-------------------------------------------------|- 
-|-------------------------------------------------|- 
-|-----------5-------------------------------------|- 
-|-7-----5-7----7---5---3-5---3---3/5--3---3/5-----|- 
-|-5--------------------------3--------3---------3-|- 
-|----------------------------1--------1-----------|- 
 
Pre-Chorus, palm muted 
 
-|-----------------------------------|- 
-|-----------------------------------|- 
-|-----------------------------------|- 
-|-----5-7---5-----------------------|- 
-|---5-----------8---7---5---5-5-7---|- 
-|-6-------6---6---6---6---6-------6-|- 
 
 
-|-----------------------------------|- 
-|-----------------------------------|- 
-|-------7---5-----------------------|- 
-|-----5---------8---7---5---5-5-7---|- 
-|---5-------------------------------|- 
-|-5-------5---5---5---5---5-------5-|- 
 
-|-----------------------------------|- 
-|-----------------------------------|- 
-|-----------------------------------|- 
-|-----5-7---5-----------------------|- 
-|---5-----------8---7---5---5-5-7---|- 
-|-5-------5---5---5---5---5-------5-|- 
 
 
Chorus: 
 
-|------------------------------------------------------------------|- 
-|------------------------------------------------------------------|- 
-|------------------------------------------------------------------|- 
-|-3---3--8-----8--10---10--7-----7--8-----8--10---10--10---10--10--|- 
-|-3---3--8-----8--10---10--7-----7--8-----8--8-----8--8-----8--10--|- 
-|-1---1--6-----6--8-----8--5-----5--6-----6--8-----8--10---10--8---|- 
 
Play 3 times 
 
Main again, x 3: 
 
-|---------------------------------------------|- 
-|---------------------------------------------|- 
-|-----------5---------------------------------|- 
-|-7-----5-7----7---5---3-5---3---3/5--3---3/5-|- 
-|-5--------------------------3--------3-------|- 
-|----------------------------1--------1-------|- 
                                               
-|---------------------------------------------|- 
-|---------------------------------------------|- 
-|---------------------------------------------|- 
-|-7---------3------5---3-5---3---3/5--3---3/5-|- 
-|-5-----3-5----5-------------3--------3-------|- 
-|----------------------------1--------1-------|- 
 
Pre-Chorus 
 
Chorus 
 
Intro Riff 
 
 then interlude riff, tremolo picked x 4: 
 
-|--------------------------------------------------------------|- 
-|--------------------------------------------------------------|- 
-|--------------------------------10---------------12-----------|- 
-|--------------7-7-7-7--------8-----8---------10-----10--------|- 
-|-5-5-5-5-5--5---------8---10---------10---12-------------12---|- 
-|-----------6--------------------------------------------------|- 
 
 
                                                                       
chorus again
		   
AcordesyTabs.com © 2008 Acordes y Tablaturas para guitarra. Tabs and Chords for guitar. Aviso Legal - Contacto
El uso de este sitio está sujeto a la aceptación de los términos y condiciones (15 usuarios online)