tablaturas, partituras y acordes para guitarra
Busca por banda/artista:
 
y/o título de la canción:
A B C D E F G H I J K L M N O P Q R S T U V W X Y Z 0 1 2 3 4 5 6 7 8 9 / Top 100 tabs
Categorías
Usuarios
usuario:
Darse de alta
password:
Artistas más visitados
Publicidad
TOP acordes y tablaturas de Cky
:: Fat f - Cky


Estás en: Inicio > Letra C > Acordes y tablaturas de Cky > Frenetic amnesic
Frenetic amnesic
de Cky
Puntúa este acorde/tab:      
(0.6/5)
Reportar este acorde/tab
  Añadir a tus favoritos
  Imprimir
Album : Infiltrate.Destroy.Rebuild 
tabbed: fabian-werner@hotmail.com 
tuning: Tune 1 Step down 
Intro 
D|-----------------------------------------------------------------------| 
A|-----------------------------------------------------------------------| 
F|-----------------------------------------------------------------------| 
C|-----------------------------------------------------------------------| 
G|-0-0-0-0-7-0-0-0--7-0-0-7-5-3-3---0-0-0-0-7-0-0-0-0-7-0-0-0-0-7-5-3-3--| 
D|-----------------------------------------------------------------------|   
                                     
D|----------------------------------------------------------| 
A|----------------------------------------------------------| 
D|----------------------------------------------------------| 
C|----------------------------------------------------------| 
G|--------5-------5------5/7-5-------5-------5------5-5-3-| 
D|-3-3-3-3-3-3-3-3-3-3-3--------1-1-1-1-1-1-1-1--1-1-1------| 
 
Verse 
D|---------------------------| 
A|---------------------------| 
F|---------------------------| 
C|---------------------------| 
G|-7------5------3-----2-----| 
D|-5(22x)-3(14x)-1(7x)-0(6x)-| 
 
D|-----------------------------| 
A|-----------------------------| 
F|----------------------5--4---| 
C|--------7(14x)--------5--4-5-| 
G|-7------5------3------3--2-5-| 
D|-5(14x)--------1(14x)------3-| 
 
Interlude 
D|-------------| 
A|-------------| 
F|-------------| 
C|-----5-------| 
G|-----------5-| 
D|-5-8---0-3---| 
 
Chorus                                                                             
D|---------------------| 
A|---------------------| 
F|---------------------| 
C|-----------------5---| 
G|-7------5-3------3-5-| 
D|-5(15x)-3-1(12x)---3-| 
 
D|--------------------------| 
A|--------------------------| 
F|--------------------------| 
C|-5/7------5-7-9--10-9-7-5-| 
G|-3/5(12x)-3-5-7---8-7-5-3-| 
D|--------------------------| 
 
Bridge 
D|--------------------------------------------------| 
A|--------------------------------------------------| 
F|--------------------------------------------------| 
C|--------------------------------------------------| 
G|-------7-----------7-10--------10-----------------| 
D|-5-5--5-5--5-5-5--5-5----8-8--8--8--8-8-8--8-7-5-3| 
 
High Sounds 
Interlude (High) 
E|-------------------20-22----------------------| 
B|-22-----------20--------------18--------------| 
G|----------------------------------------------| 
D|----------------------------------------------| 
A|----------------------------------------------| 
D|----------------------------------------------| 
 
End 
D|-----------------| 
A|-----------------| 
F|-----------------| 
C|-----------------| 
G|-----10-------15-| 
D|-5-8----10-13----|
		   
AcordesyTabs.com © 2008 Acordes y Tablaturas para guitarra. Tabs and Chords for guitar. Aviso Legal - Contacto
El uso de este sitio está sujeto a la aceptación de los términos y condiciones (55 usuarios online)