tablaturas, partituras y acordes para guitarra
Busca por banda/artista:
 
y/o título de la canción:
A B C D E F G H I J K L M N O P Q R S T U V W X Y Z 0 1 2 3 4 5 6 7 8 9 / Top 100 tabs
Categorías
Usuarios
usuario:
Darse de alta
password:
Artistas más visitados
Publicidad
TOP acordes y tablaturas de Cky
:: Fat f - Cky


Estás en: Inicio > Letra C > Acordes y tablaturas de Cky > Gayfags
Gayfags
de Cky
Puntúa este acorde/tab:      
(0.3/5)
Reportar este acorde/tab
  Añadir a tus favoritos
  Imprimir
gayfags on cky4 
 
 
 
cky 
 
 
 
 
TRANSCRIBED BY RUDY GUZMAN 
 
 
 
 
guzman84@hotmail.com 
 
 
 
eb:----------------------------------------------------------| 
Bb:----------------------------------------------------------| 
Gb:----------------------------------------------------------| 
Db:-9-9-9-9-9--12--7-7-7-7-7--12-----------------------------| 
Ab:-7-7-7-7-7--10--5-5-5-5-5--10--9-9-9-9-9--5--7-7-7-7-7--5-| 
Eb:-------------------------------7-7-7-7-7--3--5-5-5-5-5--3-| 
 
 
eb:----------------------------------------------------------| 
Bb:----------------------------------------------------------| 
Gb:----------------------------------------------------------| 
Db:-9-9-9-9-9------7-7-7-7-7---------------------------------| 
Ab:-7-7-7-7-7------5-5-5-5-5------9-9-9-9-9-----7-7-7-7-7----| 
Eb:-------------------------------7-7-7-7-7-----5-5-5-5-5----| 
 
 
pm.......................................................... 
eb:----------------------------------------------------------| 
Bb:----------------------------------------------------------| 
Gb:----------------------------------------------------------| 
Db:-9-9-9-9-9--12--7-7-7-7-7--12-----------------------------| 
Ab:-7-7-7-7-7--10--5-5-5-5-5--10--9-9-9-9-9--5--7-7-7-7-7--5-| 
Eb:-------------------------------7-7-7-7-7--3--5-5-5-5-5--3-| 
 
 
eb:----------------------------| 
Bb:----------------------------| 
Gb:----------------------------| 
Db:--9---9---9---9---9---9-9---| 
Ab:--7---7---7---7---7---7-7---| 
Eb:----0---0---0---0---0-----0-| 
 
eb:----------------------------------------------------------| 
Bb:----------------------------------------------------------| 
Gb:----------------------------------------------------------| 
Db:-9-9-9-9-9--12--7-7-7-7-7--12-----------------------------| 
Ab:-7-7-7-7-7--10--5-5-5-5-5--10--9-9-9-9-9--5--7-7-7-7-7--5-| 
Eb:-------------------------------7-7-7-7-7--3--5-5-5-5-5--3-| 
 
eb:------------------------------------------------------------| 
Bb:------------------------------------------------------------| 
Gb:------------------------------------------------------------| 
Db:-9-9-9-9-9--x--7-7-7-7-7--x---------------------------------| 
Ab:-7-7-7-7-7--x--5-5-5-5-5--x----9-9-9-9-9--x--7-7-7-7-7--5-x-| 
Eb:-------------------------------7-7-7-7-7--x--5-5-5-5-5--3-x-| 
 
 
eb:------------------------------------------------------------------------| 
Bb:------------------------------------------------------------------------| 
Gb:------------------------------------------------------------------------| 
Db:-9-9-9-9-9--12--7-7-7-7-7--12-------------------------------------------| 
Ab:-7-7-7-7-7--10--5-5-5-5-5--10--9-9-9-9-9-9-9-9-9--7-7-7-7-7-7-7-7-5--2--| 
Eb:-------------------------------7-7-7-7-7-7-7-7-7--5-5-5-5-5-5-5-5-3--0--|
		   
AcordesyTabs.com © 2008 Acordes y Tablaturas para guitarra. Tabs and Chords for guitar. Aviso Legal - Contacto
El uso de este sitio está sujeto a la aceptación de los términos y condiciones (36 usuarios online)