tablaturas, partituras y acordes para guitarra
Busca por banda/artista:
 
y/o título de la canción:
A B C D E F G H I J K L M N O P Q R S T U V W X Y Z 0 1 2 3 4 5 6 7 8 9 / Top 100 tabs
Categorías
Usuarios
usuario:
Darse de alta
password:
Artistas más visitados
Publicidad
TOP acordes y tablaturas de Cky
:: Fat f - Cky


Estás en: Inicio > Letra C > Acordes y tablaturas de Cky > Genesis 12 a
Genesis 12 a
de Cky
Puntúa este acorde/tab:      
(0.8/5)
Reportar este acorde/tab
  Añadir a tus favoritos
  Imprimir
CKY - Genesis 12A 
 
  
 Intro riff: 
 
 -|------------------------------------------------------------------|- 
 -|------------------------------------------------------------------|- 
 -|------------------------------------------------------------------|- 
 -|------------------------------------------------------------------|- 
 -|------------------------------------------------------------------|- 
 -|---5-5-7-8-7-8---5-5-7-8-7---3-3-6-5-6-5---3-3-5-6-5--------------|- 
 
 
 Interlude: 
  
 It's kinda hard to figure out what and how deron plays the ***  
 between the riffs, it seems like he's somewhat semi - muffling  
 the strings. so you have to test it out. he's definetly not using fuzz 
 or any effects, so you're gonna need a footswitch or something when 
 you play the riffs 
                                                          w/fuzz 
 -|-----------------------------------------------------|------------|- 
 -|-----------------------------------------------------|------------|- 
 -|-----------------------------------------------------|------------|- 
 -|-----------------------------------------------------|------------|- 
 -|-------------------3-0-3-------------------3-0-3-----|-3-2--------|- 
 -|---0---5-3-5--3-3---------0-0---5-3-5--3-3-----------|-----3------|- 
 
 Riff 2/bridge (palm mute) 
 
 -|------------------------------------------------------------------|- 
 -|------------------------------------------------------------------|- 
 -|------------------------------------------------------------------|- 
 -|-------------7---5-------5----5-------3---2-----------------------|- 
 -|--------------------------------3---3--------------------3-2------|- 
 -|---5-5-3-3/5---5---5-3-5---5------5-----5---5-3-5------------3----|- 
 
 now play the interlude again 
 
 Riff 3, tremolo picked 
 
 -|------------------------------------------------------------------|- 
 -|------------------------------------------------------------------|- 
 -|------------------------------------------------------------------|- 
 -|------------------------------------------------------------------|- 
 -|---0-0-0-0--3-3-3-5--0-0-0--3-3-3-5--------3-3-3-5-------3-3-3-5--|- 
 -|------------------------------------3-3-3-3--------3-3-3----------|- 
 
 -|------------------------------------------------------------------|- 
 -|------------------------------------------------------------------|- 
 -|------------------------------------------------------------------|- 
 -|------------------------------------------------------------------|- 
 -|---0-0-0-0--3-3-3-5--3-3-3-5---------3-3-3-5-------7-5-3----------|- 
 -|-----------------------------3-3-3-3----------3-3-----------------|- 
 
 interlude again 
 
 now play riff b/bridge again followed by riff 3. 
 and then comes like part b of riff 3: (played twice) 
 
 -|------------------------------------------------------------------|- 
 -|------------------------------------------------------------------|- 
 -|------------------------------------------------------------------|- 
 -|-------------6-6-6-8---------2-------4----------------------------|- 
 -|------------------------------------------------------------------|-  
 -|---4-4-4-4-------------o-o-o----0-0-------------------------------|- 
 
 continuation of riff 3: 
 
 -|------------------------------------------------------------------|- 
 -|------------------------------------------------------------------|- 
 -|------------------------------------------------------------------|- 
 -|------------6-6-6--8----------5-5-5--6----------------------------|- 
 -|---4-4-4-4------------6-6-6---------------------------------------|- 
 -|------------------------------------------------------------------|- 
 
 
 there. you'll have to listen to the song to see when your'e supposed to  
 play what, but it'seasy to figure it out. please rate this tab!
		   
AcordesyTabs.com © 2008 Acordes y Tablaturas para guitarra. Tabs and Chords for guitar. Aviso Legal - Contacto
El uso de este sitio está sujeto a la aceptación de los términos y condiciones (44 usuarios online)