tablaturas, partituras y acordes para guitarra
Busca por banda/artista:
 
y/o título de la canción:
A B C D E F G H I J K L M N O P Q R S T U V W X Y Z 0 1 2 3 4 5 6 7 8 9 / Top 100 tabs
Categorías
Usuarios
usuario:
Darse de alta
password:
Artistas más visitados
Publicidad
TOP acordes y tablaturas de Cky
:: Fat f - Cky


Estás en: Inicio > Letra C > Acordes y tablaturas de Cky > Golden egg
Golden egg
de Cky
Puntúa este acorde/tab:      
(0.3/5)
Reportar este acorde/tab
  Añadir a tus favoritos
  Imprimir
golden egg 
 
 
gnarkill 
 
 
TRANSCRIBED BY RUDY GUZMAN 
 
 
guzman84@hotmail.com 
 
 
e:---------------------------| 
B:---------------------------| 
G:---------------------------| 
D:---------9---9---9---10-10-| 
A:-7-7-7-7---7---7---7-------| 
E:---------------------------| 
 
e:---------------------------| 
B:---------------------------| 
G:---------------------------| 
D:---------9---9---9---------| 
A:-7-7-7-7---7---7---7-10-10-| 
E:---------------------------| 
 
e:---------------------------| 
B:---------------------------| 
G:---------------------------| 
D:---------9---9---9---10-10-| 
A:-7-7-7-7---7---7---7-------| 
E:---------------------------| 
 
e:---------------------------| 
B:---------------------------| 
G:---------------------------| 
D:---------9---9---9---------| 
A:-7-7-7-7---7---7---7-10-10-| 
E:---------------------------| 
 
 
e:-----------------------------| 
B:-----------------------------| 
G:-----------------------------| 
D:-9--9--9--9--9--9--9---9-7-9-| 
A:-7--7--7--7--7--7--7---7-5-7-| 
E:-----------------------------| 
 
 
e:----------------| 
B:----------------| 
G:----------------| 
D:-9-7-9-7--9-7-5-| 
A:-7-5-7-5--7-5-3-| 
E:----------------| 
 
e:------------------------------------------| 
B:------------------------------------------| 
G:------------------------------------------| 
D:-5--5--5--5--5--5--5---5-4-5--4-5--4-5--7-| 
A:-3--3--3--3--3--3--3---3-2-3--2-3--2-3--5-| 
E:------------------------------------------| 
 
e:-----------------------------| 
B:-----------------------------| 
G:-----------------------------| 
D:-9--9--9--9--9--9--9---9-7-9-| 
A:-7--7--7--7--7--7--7---7-5-7-| 
E:-----------------------------| 
 
 
e:----------------| 
B:----------------| 
G:----------------| 
D:-9-7-9-7--9-7-5-| 
A:-7-5-7-5--7-5-3-| 
E:----------------| 
 
e:------------------------------------------| 
B:------------------------------------------| 
G:------------------------------------------| 
D:-5--5--5--5--5--5--5---5-4-5--4-5--4-5--7-| 
A:-3--3--3--3--3--3--3---3-2-3--2-3--2-3--5-| 
E:------------------------------------------| 
 
i know i know this prolly isnt cky cuz brandon its on vocals but u know if jess is there and the rest too well maybe it is i read in forums of cky that gnarkill is cky so u know that?s why i?m posting it in here
		   
AcordesyTabs.com © 2008 Acordes y Tablaturas para guitarra. Tabs and Chords for guitar. Aviso Legal - Contacto
El uso de este sitio está sujeto a la aceptación de los términos y condiciones (24 usuarios online)