tablaturas, partituras y acordes para guitarra
Busca por banda/artista:
 
y/o título de la canción:
A B C D E F G H I J K L M N O P Q R S T U V W X Y Z 0 1 2 3 4 5 6 7 8 9 / Top 100 tabs
Categorías
Usuarios
usuario:
Darse de alta
password:
Artistas más visitados
Publicidad
TOP acordes y tablaturas de Cky
:: Fat f - Cky


Estás en: Inicio > Letra C > Acordes y tablaturas de Cky > Halfway house
Halfway house
de Cky
Puntúa este acorde/tab:      
(0.9/5)
Reportar este acorde/tab
  Añadir a tus favoritos
  Imprimir
Intro 
 
Guitar 1 
--------------------------------------- 
--------------------------------------- 
-3-------------------2----------------- 
-5-------------------3----------------- 
-5-------------------3----------------- 
-3-------------------1----------------- 
 
Bass 
               
--------------------------------------- 
--------------------------------------- 
-----------3-5-4-3-------1------------- 
-3-----------------1--------1--1-3-2-1- 
 
Guitar 1 and bass stay the same, play 4x 
 
Guitar 2 
Gm                F                    Gm                F                    
------------------------------------------------------------------------------ 
------------------------------------------------------------------------------ 
------------------------------------------------------------------------------ 
-------3/5-5/8-7-5--------------------3/5------/8---7---5----------------- 
------------------------------------------------------------------------------ 
------------------------------------------------------------------------------ 
 
Gm                F                    Gm                F                    
------------------------------------------------------------------------------ 
------------------------------------------------------------------------------ 
------------------------------------------------------------------------------ 
----------------------------------------3--------3/5-5/8--7----------------- 
------------------------------------------------------------------------------ 
------------------------------------------------------------------------------ 
 
Pre-Chorus 
 
Guitar 1 
           
--------------------------------------- 
--------------------------------------- 
-6-------------------5----------------- 
-8-------------------6----------------- 
-8-------------------6----------------- 
-6-------------------4----------------- 
 
 
Bass 
           
------------------------------------------------------------------------------ 
------------------------------------------------------------------------------ 
------------------------------------------------------------------------------ 
-6-------------------4------------------6----------------6--4----------------- 
 
Guitar 2 
                
------------------------------------------------------------------------------ 
---------7-6-----------------11------9----------7-6-----------------11------9- 
-----6-------8--6-------8----8-----8--------6-------8--6-------8----8-----8--- 
-8-----8----------8--6----6-------------8-----8----------8--6----6------------ 
------------------------------------------------------------------------------ 
------------------------------------------------------------------------------ 
 
Verse 
 
Guitar 1 
                   
------------------------------------------------------------------------------ 
------------------------------------------------------------------------------ 
------------------------------------------------------------------------------ 
------------------------------------------------------------------------------ 
-5------------5-1--3----------3-1-------5------------5-1--3-------3-1-1/5----- 
-3--3-6-3-6-3------1--------------------3--3-6-3-6-3------1------------------- 
 
Guitar 2 
          
------------------------------------------------------------------------------ 
------------------------------------------------------------------------------ 
-----------------------------------/7----------------------------------------- 
--------------------------------------8--------------------------------------- 
------------------------------------------------------------------------------ 
------------------------------------------------------------------------------ 
 
Guitar 2 
           
-15-15-15--18-17-15-13-11-10-6-8-8/10-6------ 
--------------------------------------------- 
--------------------------------------------- 
--------------------------------------------- 
--------------------------------------------- 
--------------------------------------------- 
 
Pre-Chorus 
 
Guitar 3 
           
----------------------------------------------------11-9-11-11h13p11-9-8------ 
-------------------11-------------------11-11h13------------------------------ 
---------------------------------------------------------------------------13- 
------------------------------------------------------------------------------ 
------------------------------------------------------------------------------ 
------------------------------------------------------------------------------ 
 
Chorus 
 
Guitars 1 & 2                 
--------------------------------------- 
--------------------------------------- 
--------------------------------------- 
--------------------------------------- 
-8----------8----8---4----------4----4- 
-6----------6----6---2----------2----2- 
 
-------------------------- 
-------------------------- 
-------------------------- 
-------------------------- 
-8----------8----8---9---- 
-6----------6----6---7----  x4 
 
Pre-Chorus 
 
Guitar 3 
Bbm                  G#                 Bbm                   G#                 
-14-14-14-14-14-14-14-13-13-13-13-13-13-14-14-14-14-16-16-14-14-13-13-13-13- 
---------------------------------------------------------------------------- 
-11-11-11-11-11-11-11-10-10-10-10-10-10-11-11-11-11-13-13-11-11-10-10-10-10- 
---------------------------------------------------------------------------- 
---------------------------------------------------------------------------- 
---------------------------------------------------------------------------- 
 
Guitar 3 
 
-16-----15--- 
------------- 
------------- 
------------- 
------------- 
------------- 
 
Guitar 3 
 
---------------------- 
-15--13---13-11-11-15- 
---------------------- 
-12--10---10-8--8--12- 
---------------------- 
---------------------- 
 
Guitar 1 
               
------------------------------------------------------------------------------ 
------------------------------------------------------------------------------ 
--------------------------------/7------------------------------------------ 
------------------------------------------------------------------------------ 
-5------------5-1--3-------3-1----------5------------5-1--3-------3-1-1/5----- 
-3--3-6-3-6-3------1--------------------3--3-6-3-6-3------1------------------- 
 
Guitar 3 
Gm                F                     
---------------------------------------- 
---------------------------------------- 
-------------------------7/14----------- 
---------------------------------------- 
-------------------------------15------ 
-3--b---/----------1--------------------
		   
AcordesyTabs.com © 2008 Acordes y Tablaturas para guitarra. Tabs and Chords for guitar. Aviso Legal - Contacto
El uso de este sitio está sujeto a la aceptación de los términos y condiciones (55 usuarios online)