tablaturas, partituras y acordes para guitarra
Busca por banda/artista:
 
y/o título de la canción:
A B C D E F G H I J K L M N O P Q R S T U V W X Y Z 0 1 2 3 4 5 6 7 8 9 / Top 100 tabs
Categorías
Usuarios
usuario:
Darse de alta
password:
Artistas más visitados
Publicidad
TOP acordes y tablaturas de Cky
:: Fat f - Cky


Estás en: Inicio > Letra C > Acordes y tablaturas de Cky > Human drive in hi-fi
Human drive in hi-fi
de Cky
Puntúa este acorde/tab:      
(0.6/5)
Reportar este acorde/tab
  Añadir a tus favoritos
  Imprimir
I N T R O 
|----------------------------------------------------------------------
|----------------------------------------------------------------------
|----------------------------------------------------------------------
|-3-3-3-3-3-3-3-3-3-3-3-3-3-3-3-3-3-3-3-3-3-3-3-3-3-3-3-3-3-3-3-3-3-3-- 

V E R S E 
|----------------------------------------------
|----------------------------------------------
|----------------------------------------------
|-2--2-0-2-0-2-0-2--2-0-2-0-2-0-2--2-0-2-0-2---
"Cant deny it, all my life ..." 



C H O R U S
|----------------------------------------------
|----------------------------------------------
|----------------------------------------------
|--3-3-3-3-3---6-6--3-1--0-0-0-0---9-7-5-2-----
"People stop and stare ..."


|----------------------------------------------
|----------------------------------------------
|----------------------------------------------
|--3-3-3-3-3---6-6--7-9---9-7-9-7-6-2---------- 

 
B R I D G E
|-------------------------------------------------------------------------------
|-------------------------------------------------------------------------------
|-------------------------------------------------------------------------------
|-3-3-3-3-3-3-3-3-3-3-3-2-2-2-2-2-2-2-2-2-2-3-3-3-3-3-3-3-3-3-3-2-2-2-2-2-2-2---
		   
AcordesyTabs.com © 2008 Acordes y Tablaturas para guitarra. Tabs and Chords for guitar. Aviso Legal - Contacto
El uso de este sitio está sujeto a la aceptación de los términos y condiciones (44 usuarios online)