tablaturas, partituras y acordes para guitarra
Busca por banda/artista:
 
y/o título de la canción:
A B C D E F G H I J K L M N O P Q R S T U V W X Y Z 0 1 2 3 4 5 6 7 8 9 / Top 100 tabs
Categorías
Usuarios
usuario:
Darse de alta
password:
Artistas más visitados
Publicidad
TOP acordes y tablaturas de Cky
:: Fat f - Cky


Estás en: Inicio > Letra C > Acordes y tablaturas de Cky > I wish you aty christmas
I wish you aty christmas
de Cky
Puntúa este acorde/tab:      
(0.7/5)
Reportar este acorde/tab
  Añadir a tus favoritos
  Imprimir
CKY 
 
 
 
song merry christmas 
 
 
tabbed by Rudy Guzman 
 
 
guzman84@hotmail.com 
 
 
eb------------------------------------------------------------------------------------| 
Bb------------------------------------------------------------------------------------| 
Gb------------------------------------------------------------------------------------| 
Db---------------------------6-6--8--6--4--3-------8--8--9--8--6--4-----------6--3--4-| 
Ab-4--9-9--11--9--7--6--6-6--4-4--6--4--2--1--4-4--6--6--7--6--4--2--4--4--6--4--1--2-| 
Eb-2--7-7--9---7--5--4--4-4-------------------2-2--------------------2--2--4----------| 
 
gt1 
eb------------------------------------------------------------------------------------| 
Bb------------------------------------------------------------------------------------| 
Gb------------------------------------------------------------------------------------| 
Db---------------------------6-6--8--6--4--3-------8--8--9--8--6--4-----------6--3--4-| 
Ab-4--9-9--11--9--7--6--6-6--4-4--6--4--2--1--4-4--6--6--7--6--4--2--4--4--6--4--1--2-| 
Eb-2--7-7--9---7--5--4--4-4-------------------2-2--------------------2--2--4----------| 
gt2 
eb----------------------------------------------------------------------------------------| 
Bb----------------------------------------------------------------------------------------| 
Gb----------------------------------------------------------------------------------------| 
Db----------------------------------------------------------------------------------------| 
Ab---------------------------------------44444-66666-444444-22222-11111-------66666-77777-| 
Eb-2--77777-99999-77777-55555-444444444---------------------------------22222-------------| 
gt2 
|------------------------------------------------------------| 
|------------------------------------------------------------| 
|------------------------------------------------------------| 
|------------------------------------------------------------| 
|-66666-44444-22222-------------------44444--11111-22222222--| 
|-------------------444-22222--44444-------------------------| 
 
verse 
i wish u a ***in merry christmas....... 
eb------------------------------------------------------------------------------------| 
Bb------------------------------------------------------------------------------------| 
Gb------------------------------------------------------------------------------------| 
Db---------------------------6-6--8--6--4--3-------8--8--9--8--6--4-----------6--3--4-| 
Ab-4--9-9--11--9--7--6--6-6--4-4--6--4--2--1--4-4--6--6--7--6--4--2--4--4--6--4--1--2-| 
Eb-2--7-7--9---7--5--4--4-4-------------------2-2--------------------2--2--4----------| 
 
gt1 
eb------------------------------------------------------------------------------------| 
Bb------------------------------------------------------------------------------------| 
Gb------------------------------------------------------------------------------------| 
Db---------------------------6-6--8--6--4--3-------8--8--9--8--6--4-----------6--3--4-| 
Ab-4--9-9--11--9--7--6--6-6--4-4--6--4--2--1--4-4--6--6--7--6--4--2--4--4--6--4--1--2-| 
Eb-2--7-7--9---7--5--4--4-4-------------------2-2--------------------2--2--4----------| 
gt2 
eb----------------------------------------------------------------------------------------| 
Bb----------------------------------------------------------------------------------------| 
Gb----------------------------------------------------------------------------------------| 
Db----------------------------------------------------------------------------------------| 
Ab---------------------------------------44444-66666-444444-22222-11111-------66666-77777-| 
Eb-2--77777-99999-77777-55555-444444444---------------------------------22222-------------| 
gt2 
|------------------------------------------------------------| 
|------------------------------------------------------------| 
|------------------------------------------------------------| 
|------------------------------------------------------------| 
|-66666-44444-22222-------------------44444--11111-22222222--| 
|-------------------444-22222--44444-------------------------| 
 
 
eb--------------------------------------------------------------------| 
Bb--------------------------------------------------------------------| 
Gb-/16~~--15~~--16-15-13--11------------------------------------------| 
Db------------------------------6--8--6--4--11----------------6--3--4-| 
Ab------------------------------4--6--4--2--9---11--4---4--6--4--1--2-| 
Eb----------------------------------------------9---2---2--4----------| 
 
 
eb---------------------------------------------------------------| 
Bb---------------------------------------------------------------| 
Gb---------------------------------------------------------------| 
Db-------------------------6--8--6--4--11----------------6--3--4-| 
Ab-4--9---8---9--8--6--4---4--6--4--2--9---11--4---4--6--4--1--2-| 
Eb-2--7---6---7--6--4--2-------------------9---2---2--4----------| 
 
eb----------------------------------------------------------------------------------------| 
Bb----------------------------------------------------------------------------------------| 
Gb----------------------------------------------------------------------------------------| 
Db----------------------------------------------------------------------------------------| 
Ab---------------------------------------44444-66666-444444-22222-11111-------66666-77777-| 
Eb-2--77777-99999-77777-55555-444444444---------------------------------22222-------------| 
gt2 
|--------------------------------------------| 
|--------------------------------------------| 
|--------------------------------------------| 
|----------------------------------6--3---4--| 
|-66666-44444-22222------------6---4--1---2--| 
|-------------------444-22222--4-------------| 
 
 
|------------------------------------------------------------------------------------------| 
|-------------------------------------------------------------------------11-13-11-13-11-13| 
|--11-11-11-11-13-13-13-13-13-11-11-11-11-11-13-13-13-13-13--11-11-13-13-------------------| 
|------------------------------------------------------------------------------------------| 
|------------------------------------------------------------------------------------------| 
|------------------------------------------------------------------------------------------| 
 
 
|-----------------------------------------------------------------------------------| 
|-12-14-12-14--13-16-13--14-16-14--15-17-15--16-18-16--17-19-17---------------------| 
|-----------------------------------------------------------------------------------| 
|-----------------------------------------------------------------------------------| 
|-----------------------------------------------------------------------------------| 
|-----------------------------------------------------------------------------------| 
 
|-----------------------------------------18b~~---| 
|-16b-14-16~~--16b~~~~~~p14----------15-----------| 
|-----------------------------16b-----------------| 
|-------------------------------------------------| 
|-------------------------------------------------| 
|-------------------------------------------------| 
 
eb------------------------------------------------------------------------------------| 
Bb------------------------------------------------------------------------------------| 
Gb------------------------------------------------------------------------------------| 
Db---------------------------6-6--8--6--4--3-------8--8--9--8--6--4-----------6--3--4-| 
Ab-4--9-9--11--9--7--6--6-6--4-4--6--4--2--1--4-4--6--6--7--6--4--2--4--4--6--4--1--2-| 
Eb-2--7-7--9---7--5--4--4-4-------------------2-2--------------------2--2--4----------
		   
AcordesyTabs.com © 2008 Acordes y Tablaturas para guitarra. Tabs and Chords for guitar. Aviso Legal - Contacto
El uso de este sitio está sujeto a la aceptación de los términos y condiciones (40 usuarios online)