tablaturas, partituras y acordes para guitarra
Busca por banda/artista:
 
y/o título de la canción:
A B C D E F G H I J K L M N O P Q R S T U V W X Y Z 0 1 2 3 4 5 6 7 8 9 / Top 100 tabs
Categorías
Usuarios
usuario:
Darse de alta
password:
Artistas más visitados
Publicidad
TOP acordes y tablaturas de Cky
:: Fat f - Cky


Estás en: Inicio > Letra C > Acordes y tablaturas de Cky > Inspiration strikes the margera home
Inspiration strikes the margera home
de Cky
Puntúa este acorde/tab:      
(0.8/5)
Reportar este acorde/tab
  Añadir a tus favoritos
  Imprimir
inspiration strikes the margera home 
 
 
viva la bam episode 3., 1st season 
 
 
TRANSCRIBED BY RUDY GUZMAN 
 
 
guzman84@hotmail.com 
 
 
e:-----------------------------------------------------------------------| 
B:-----------------------------------------------------------------------| 
G:-----------------------------------------------------------------------| 
D:-----------------------------------------------------------------------| 
A:-----------------------------------------------------------------------| 
E:-0-0-0-0-0-0-0-0-0-0-0-0-0-0-0-0-0-0-0-0-0-0-0-0-0-0-0-0-0-0-0-0-0-0-0-| 
 
e:-----------------------------------------------------------------------| 
B:-----------------------------------------------------------------------| 
G:-----------------------------------------------------------------------| 
D:-----------------------------------------------------------------------| 
A:-----------------------------------------------------------------------| 
E:-0-0-0-0-0-0-0-0-0-0-0-0-0-0-0-0-0-0-0-0-0-0-0-0-0-0-0-0-0-0-0-0-0-0-0-| 
 
e:-----------------------------------------------------------------------| 
B:-----------------------------------------------------------------------| 
G:-----------------------------------------------------------------------| 
D:-----------------------------------------------------------------------| 
A:-----------------------------------------------------------------------| 
E:-0-0-0-0-0-0-0-0-0-0-0-0-0-0-0-0-0-0-0-0-0-0-0-0-0-0-0-0-0-0-0-0-0-0-0-| 
 
e:-----------| 
B:-----------| 
G:-----------| 
D:-2---------| 
A:-2---------| 
E:-0---------|
		   
AcordesyTabs.com © 2008 Acordes y Tablaturas para guitarra. Tabs and Chords for guitar. Aviso Legal - Contacto
El uso de este sitio está sujeto a la aceptación de los términos y condiciones (20 usuarios online)