tablaturas, partituras y acordes para guitarra
Busca por banda/artista:
 
y/o título de la canción:
A B C D E F G H I J K L M N O P Q R S T U V W X Y Z 0 1 2 3 4 5 6 7 8 9 / Top 100 tabs
Categorías
Usuarios
usuario:
Darse de alta
password:
Artistas más visitados
Publicidad
TOP acordes y tablaturas de Cky
:: Fat f - Cky


Estás en: Inicio > Letra C > Acordes y tablaturas de Cky > Knee deep full
Knee deep full
de Cky
Puntúa este acorde/tab:      
(0.6/5)
Reportar este acorde/tab
  Añadir a tus favoritos
  Imprimir
Song- Knee Deep 
Artist- CKY 
Album- Volume One 
Tuning- 1 full step down  
Tabber- vonsk8er 
 
----------------------------------------------------------------------------- 
----------------------------------------------------------------------------- 
-----9b---------------------------------9b-----------7-7-7-7-7-7-5-5-5-5-5-5- 
---9----9-7-7-5-7---------7-7-5-7-5---9----9-7-7-5---7-7-7-7-7-7-5-5-5-5-5-5- 
-7----------------5-5-5-5-----------7--------------5-5-5-5-5-5-0-3-3-3-3-3-3- 
----------------------------------------------------------------------------- 
 
Guitar 2 plays the verse part till here-----------|then plays this  
----------------------------------------------------------------------------- 
----------------------------------------------------------------------------- 
-----9b---------------------------------9b-----------7-7-7-7-7-7-5-5-5-5-5-5- 
---9----9-7-7-5-7---------7-7-5-7-5---9----9-7-7-5---7-7-7-7-7-7-5-5-5-5-5-5- 
-7----------------5-5-5-5-----------7--------------5-5-5-5-5-5-0-3-3-3-3-3-3- 
----------------------------------------------------------------------------- 
 
 
----------------------------------------------------------------- 
----------------------------------------------------------------- 
----------------------------------------------------------------- 
-2-2-2-2-7-7-5-5-2-2-2-2-7-7-5-5-2-2-2-2-7-7-5-5-2-2-2-2-7-7-5-5- 
-2-2-2-2-7-7-5-5-2-2-2-2-7-7-5-5-2-2-2-2-7-7-5-5-2-2-2-2-7-7-5-5- 
-0-0-0-0-5-5-3-3-0-0-0-0-5-5-3-3-0-0-0-0-5-5-3-3-0-0-0-0-5-5-3-3- 
 
-------------------------------------------------  
------------------------------------------------- | 
-----9b-----------/7----7-0-0--7/9-9-9-7/9-9----- | 
---9----9-7-7-5-7----------------------------9--- |  
-7---------------------------------------------7- | 
------------------------------------------------- |Guitare 2 plays 
                                                  |verse throughout 
----------------------------------------          |this 
----------------------------------------          | 
-----9b-----------7-7-7-7-7-7-5-5-5-5-5-          | 
---9----9-7-7-5---7-7-7-7-7-7-5-5-5-5-5-          | 
-7--------------5-5-5-5-5-5-0-3-3-3-3-3-          | 
----------------------------------------          / 
 
--------------------------------- 
--------------------------------- 
--------------------------------- 
-2-2-2-2-7-7-5-5-2-2-2-2-7-7-5-5- 
-2-2-2-2-7-7-5-5-2-2-2-2-7-7-5-5- 
-0-0-0-0-5-5-3-3-0-0-0-0-5-5-3-3- 
 
------------------------ 
------------------------ 
------------------------ 
-4-----2---2-4-6-4-2---- 
-4-----2--4------------- 
-2-0-2-0-2-------------- 
 
---------------------------------------------- 
---------------------------------------------- 
---------------------------------------------- 
-4-2-4-4---2-4-2-6-4-2--4-2-4-4---2-4-2-6-4-2- 
-4-2-4-4--4-------------4-2-4-4--4------------ 
-2-0-2-2-2--------------2-0-2-2-2------------- 
 
------------------------------------------------------ 
------------------------------------------------------ 
------------------------------------------------------ 
-7-6-4-6-4-4---2-4-2-6-4-2--7-6-4-6-4-4---2-4-2-6-4-2- 
-7-6-4-6-4-4--4-------------7-6-4-6-4-4--4------------ 
-5-4-2-4-2-2-2--------------5-4-2-4-2-2-2------------- 
 
---------------------------------------------- 
---------------------------------------------- 
---------------------------------------------- 
-4-2-4-4---2-4-2-6-4-2--4-2-4-4---2-4-2-6-4-2- 
-4-2-4-4--4-------------4-2-4-4--4------------ 
-2-0-2-2-2--------------2-0-2-2-2------------- 
 
------------------------------------------------------ 
------------------------------------------------------ 
------------------------------------------------------ 
-7-6-4-6-4-4---2-4-2-6-4-2--7-6-4-6-4-4---2-4-2-6-4-2- 
-7-6-4-6-4-4--4-------------7-6-4-6-4-4--4------------ 
-5-4-2-4-2-2-2--------------5-4-2-4-2-2-2------------- 
 
--------------------------------- 
--------------------------------- 
--------------------------------- 
-------129-9--7-0--7-0-5------7- 
-7----------------------7------5- 
-0------------------------------- 
 
--------------------------------- 
--------------------------------- 
--------------------------------- 
-------129-9--7-0--7-0-5------7- 
-7----------------------7------5- 
-0------------------------------- 
 
--------------------------------- 
--------------------------------- 
--------------------------------- 
-2-2-2-2-7-7-5-5-2-2-2-2-7-7-5-5- 
-2-2-2-2-7-7-5-5-2-2-2-2-7-7-5-5- 
-0-0-0-0-5-5-3-3-0-0-0-0-5-5-3-3- 
 
---------------------------------------------- 
---------------------------------------------- 
---------------------------------------------- 
-4-2-4-4---2-4-2-6-4-2--4-2-4-4---2-4-2-6-4-2- 
-4-2-4-4--4-------------4-2-4-4--4------------ 
-2-0-2-2-2--------------2-0-2-2-2------------- 
 
------------------------------------------------------ 
------------------------------------------------------ 
------------------------------------------------------ 
-7-6-4-6-4-4---2-4-2-6-4-2--7-6-4-6-4-4---2-4-2-6-4-2- 
-7-6-4-6-4-4--4-------------7-6-4-6-4-4--4------------ 
-5-4-2-4-2-2-2--------------5-4-2-4-2-2-2------------- 
 
------------------------------------------------- 
------------------------------------------------- 
-----9b-----------/7----7-0-0--7/9-9-9-7/9-9----- 
---9----9-7-7-5-7----------------------------9---  
-7---------------------------------------------7- 
-------------------------------------------------  
                                                   
----------------------------------------          
----------------------------------------         
-----9b-----------7-7-7-7-7-7-5-5-5-5-5-           
---9----9-7-7-5---7-7-7-7-7-7-5-5-5-5-5-           
-7--------------5-5-5-5-5-5-0-3-3-3-3-3-           
----------------------------------------  
 
------------------------------------------------- 
-------------------------------------------------  
-----9b-----------/7----7-0-0--7/9-9-9-7/9-9-----  
---9----9-7-7-5-7----------------------------9---  
-7---------------------------------------------7- 
-------------------------------------------------  
                                                   
----------------------------------------          
----------------------------------------           
-----9b-----------7-7-7-7-7-7-5-5-5-5-5-           
---9----9-7-7-5---7-7-7-7-7-7-5-5-5-5-5-           
-7--------------5-5-5-5-5-5-0-3-3-3-3-3-           
----------------------------------------
		   
AcordesyTabs.com © 2008 Acordes y Tablaturas para guitarra. Tabs and Chords for guitar. Aviso Legal - Contacto
El uso de este sitio está sujeto a la aceptación de los términos y condiciones (27 usuarios online)