tablaturas, partituras y acordes para guitarra
Busca por banda/artista:
 
y/o título de la canción:
A B C D E F G H I J K L M N O P Q R S T U V W X Y Z 0 1 2 3 4 5 6 7 8 9 / Top 100 tabs
Categorías
Usuarios
usuario:
Darse de alta
password:
Artistas más visitados
Publicidad
TOP acordes y tablaturas de Cky
:: Fat f - Cky


Estás en: Inicio > Letra C > Acordes y tablaturas de Cky > Lost in a contraption
Lost in a contraption
de Cky
Puntúa este acorde/tab:      
(0.3/5)
Reportar este acorde/tab
  Añadir a tus favoritos
  Imprimir
CKY 
Lost in a Contraption 
volume 1 
 
Tabbed by Chris "Topher" Torrez 
 
E tuning (E, A, D, G, B, E) 
 
Intro clean 
Intro Riff A 
||----|----------------------------------|-----------------6-----------------| 
||-7--|-8-7------------------------------|-7---8---7---8-------10-8-7---8-10-| 
||----|-----9---10------------------9-10-|-----------------------------------| 
||----|----------------------------------|-----------------------------------| 
||----|----------------------------------|-----------------------------------| 
||----|----------------------------------|-----------------------------------| 
| 
|Verse Riff 
||----|----------------------------------|-----------------------------------| 
||----|----------------------------------|-----------------------------------| 
||----|----------------------------------|-----------------------------------| 
||----|----------------------------------|-----------------------------------| 
||----|-----7-------7-------7-------7----|-----7-------7-------7-------7-----| 
||----|-0-------0-------0-------0--------|-0-------0-------0-------0---------| 
 
 
Intro Riff A cont. w/ Verse Riff 
|-6-----------------------------|-------------------------------| 
|---10-7---8--------------------|-7-8-7-------------------------|  
|-------------------------------|-------9-8---9-----------------| 
|-------------------------------|-------------------------------| 
|-------------------------------|-------------------------------| 
|-------------------------------|-------------------------------| 
 
 
Verse Riff w/ wah on right channel 
 
 
Interlude Riff A 
|---------------------------------| 
|---------------------------------| 
|---------------------------------| 4 times 
|---------------------------------| 
|---------------------------------| 
|-0---3---2---1-2-3---2---1---2-3-| 
| 
|Interlude Riff B 
|---------------------------------|              |-------------------------------|  
|-5---8---7---6-7-8---7---6---7-8-|              |-5---8---7---6-7-8---7---6---7-|   
|---------------------------------| 3 times then |-------------------------------|  
|---------------------------------|              |-------------------------------|  
|---------------------------------|              |-------------------------------|  
|---------------------------------|              |-------------------------------|  
 
 
Riff A var. 
|-----------------------------------|---------6---------------------| 
|-8-7---------------7-8-7-----------|-7---8------10---8-7-----------| 
|-----9---10---9-10-------10-9---10-|---------------------9-8-9-----| 
|-----------------------------------|-------------------------------| 
|-----------------------------------|-------------------------------| 
|-----------------------------------|-------------------------------| 
 
 
Verse Riff w/ wah on right channel 
 
 
Chorus Riff A  
|---------------------| 
|-10---10---8-------7-| 
|---------------7-----| the 2 chords played over Chorus Riff A and B are D major and E minor  
|---------------------| 
|---------------------| 
|---------------------| 
 
			       
Chorus Riff B	              1.   2. 
|-------------------10------|---|---| 
|-10-------12---------------|-8-|---| 
|---------------------------|---|---| 
|---------------------------|---|---| 
|---------------------------|---|-5-| 
|---------------------------|---|---| 
 
Interlude Riff A 
 
Intro Riff A, Verse Riff w/ wah on right channel 
 
Verse Riff w/ wah on right channel 
 
Chorus Riff A  
|---------------------| 
|-10---10---8-------7-| 
|---------------7-----|  
|---------------------| 
|---------------------| 
|---------------------| 
 
			       
Chorus Riff B	              1.   2. 
|-------------------10------|---|---| 
|-10-------12---------------|-8-|---| 
|---------------------------|---|---| 
|---------------------------|---|---| 
|---------------------------|---|-5-| 
|---------------------------|---|---| 
 
 
Interlude Riff A 
 
 
Bridge Riff 
|---------------------------------|         |-------------------| 
|---------------------------------|         |-------------------| 
|---------------------4-----------| 7 times |-------------------| 
|-------------------------5-4-2---|         |-------------------| 
|-2---5---4-------2-------------5-|         |-2---5---4-------2-| 
|-----------5-2-------------------|         |-----------5-2-----| 
 
Chorus Riff A  
|---------------------| 
|-10---10---8-------7-| 
|---------------7-----|  
|---------------------| 
|---------------------| 
|---------------------| 
 
			       
Chorus Riff B	              1.   2. 
|-------------------10------|---|---| 
|-10-------12---------------|-8-|---| 
|---------------------------|---|---| 
|---------------------------|---|---| 
|---------------------------|---|-5-| 
|---------------------------|---|---| 
 
Interlude Riff A w/dist 
|---------------------------------| 
|---------------------------------| 
|---------------------------------| 
|---------------------------------| 
|---------------------------------| 
|-0---3---2---1-2-3---2---1---2-3-| 
 
 
|---| 
|---| 
|---| 
|---| 
|---| 
|-0-|
		   
AcordesyTabs.com © 2008 Acordes y Tablaturas para guitarra. Tabs and Chords for guitar. Aviso Legal - Contacto
El uso de este sitio está sujeto a la aceptación de los términos y condiciones (31 usuarios online)