tablaturas, partituras y acordes para guitarra
Busca por banda/artista:
 
y/o título de la canción:
A B C D E F G H I J K L M N O P Q R S T U V W X Y Z 0 1 2 3 4 5 6 7 8 9 / Top 100 tabs
Categorías
Usuarios
usuario:
Darse de alta
password:
Artistas más visitados
Publicidad
TOP acordes y tablaturas de Cky
:: Fat f - Cky


Estás en: Inicio > Letra C > Acordes y tablaturas de Cky > My promiscous daughter
My promiscous daughter
de Cky
Puntúa este acorde/tab:      
(0.5/5)
Reportar este acorde/tab
  Añadir a tus favoritos
  Imprimir
= Song
Volume 1 = Album
 = Artist
jackya = tabber

Riff1:
   I caught my daughter giving head to my brother…..
                      X4                      X4                     X4
G|----------------------|---------------------|----------------------|
D|----------------------|---------------------|----------------------|
A|--5-5--8-8--8-8--8-8--|--55555555-88888888--|--5-5--8-8--8-8--8-8--|
E|----------------------|---------------------|----------------------|

Bass solo part 1:

G|----------------------------------------
D|---------------------------------------- X4 
A|----------------------------------------
E|-00000000000---------------------------

Bass solo part 2:

G|-----------------------------------
D|-----77-55-3-5-3-55-3-5------------ X4
A|--5---------------------3----------
E|-----------------------------------

Riff 2:
      What can be done with my promiscuous daughter?…..

G|-------------------------------
D|-------------------------------  X4
A|--55555555-88888888------------
E|--------------------------------

Bridge:

G|----7-4-2----------------7-4-2-------------------
D|---------------------------------------------------  X4 
A|-5---------5-88-10-5-5---------5-88-1010-----------
E|---------------------------------------------------

Riff 3:
    Not just the family name…..                
              X2                     X8
G|-------------|---------------------|------
D|-------------|---------------------|-------
A|-55-88-88-88-|--55555555-88888888--|--5~---
E|-------------|---------------------|-------

Bridge: X4

End on:

G|--------
D|--------
A|--5~ --
E|--------


Song with amazing bass riffs, listen and learn
		   
AcordesyTabs.com © 2008 Acordes y Tablaturas para guitarra. Tabs and Chords for guitar. Aviso Legal - Contacto
El uso de este sitio está sujeto a la aceptación de los términos y condiciones (37 usuarios online)