tablaturas, partituras y acordes para guitarra
Busca por banda/artista:
 
y/o título de la canción:
A B C D E F G H I J K L M N O P Q R S T U V W X Y Z 0 1 2 3 4 5 6 7 8 9 / Top 100 tabs
Categorías
Usuarios
usuario:
Darse de alta
password:
Artistas más visitados
Publicidad
TOP acordes y tablaturas de Cky
:: Fat f - Cky


Estás en: Inicio > Letra C > Acordes y tablaturas de Cky > Ninety-six quite bitter beings
Ninety-six quite bitter beings
de Cky
Puntúa este acorde/tab:      
(0.5/5)
Reportar este acorde/tab
  Añadir a tus favoritos
  Imprimir
Band: CKY (Camp Kill Yourself) 
Song:96 Quite Bitter Beings 
Tabbed by: Savestheday15 
Instrument: Guitar 
Tuning: Drop D (make low E {6} string sound like  
A {5} string on 7th fret) 
Other Notes:Use heavy Distortion preferrably  
a heavy metal pedal for best sound 
 
Intro 4x /Chorus 4x /Main Rhythm 
 
play this throughout the song when neccassry  
i'm not gonna bother posting it over and over again.  
it's not hard to find out when its played.  
 
         (0:01)           (0:02)                 (0:04)         (0:05) 
|----------------|----------------|------------------|--------------|      
|----------------|----------------|--------slide-----|--------------|   
|----------------|-----3-4-3------|--------4--4/6--|--3--1----3---|   
|---------3-----1|-1--4-----4--3--|------4-----------|-------4----4-|     
|---1--4--------1|---------------4|---2--------------|--------------|    
|---------------1|----------------|------------------|--------------| 
 
Verse 
 
like i said with the intro/chorus im not gonna post it over and over again. 
	(0:20)		(0:23) 
|----------------|---------------| 
|----------------|---------------| 
|----------------|----5--5--5----|    
|---1---1---1----|-1--5--5--5----|     
|---1---1---1----|-1--3--3--3----| 
|---1---1---1----|-1-------------|    
 
Crazy Part 2x 
 
This guitars playing over each other so it only  
sounds crazy. Use up and down strokes to increase speed. 
 
Guitar 1 
|----------------|---------------|  
|----------------|---------------| 
|--8-8-8-8-8-8---|--6-6-6-6-6-6--| 
|--8-8-8-8-8-8---|--6-6-6-6-6-6--| 
|--6-6-6-6-6-6---|--4-4-4-4-4-4--| 
|----------------|---------------|  
 
Guitar 2 
|----------------|---------------| 
|----------------|---------------| 
|----------------|---------------| 
|--1-1-1-1-1-1---|--4-4-4-4-4-4--| 
|--1-1-1-1-1-1---|--4-4-4-4-4-4--| 
|--1-1-1-1-1-1---|--4-4-4-4-4-4--| 
 
 
Here's the order of it all: 
 
Intro/Chorus 
Verse 
Intro/Chorus 
Verse 
Crazy Part 
Verse 
Crazy Part 
Verse 
Intro/Chorus 8x (total)
		   
AcordesyTabs.com © 2008 Acordes y Tablaturas para guitarra. Tabs and Chords for guitar. Aviso Legal - Contacto
El uso de este sitio está sujeto a la aceptación de los términos y condiciones (15 usuarios online)