tablaturas, partituras y acordes para guitarra
Busca por banda/artista:
 
y/o título de la canción:
A B C D E F G H I J K L M N O P Q R S T U V W X Y Z 0 1 2 3 4 5 6 7 8 9 / Top 100 tabs
Categorías
Usuarios
usuario:
Darse de alta
password:
Artistas más visitados
Publicidad
TOP acordes y tablaturas de Cky
:: Fat f - Cky


Estás en: Inicio > Letra C > Acordes y tablaturas de Cky > Nothing you can do
Nothing you can do
de Cky
Puntúa este acorde/tab:      
(0.7/5)
Reportar este acorde/tab
  Añadir a tus favoritos
  Imprimir
RIFF 1                                          RIFF 2    
-|-----------------------------------------|---------------------------|------ 
-|-----------------------------------------|---------------------------|------ 
-|-----------------------------------------|---------------------------|------ 
-|-----------------------------------------|---------------------------|------ 
-|---8-8-8-8---6-4-3----3-3-3-3---6-4-3----|---------------------------|------ 
-|---6-6-6-6---------1--1-1-1-1---------6--|-1-2-1-0-1-2-1-0-1-2-1-0-1-|------ 
                                                               
 LIL RIFF              RIFF3   
-|---------|-----------------------------|------------------------------------ 
-|---------|-----------------------------|------------------------------------ 
-|---------|-----------------------------|------------------------------------ 
-|-8h10p8v-|-----------------------------|------------------------------------ 
-|---------|---8--8-6-8--8--6-/10--2-3---|------------------------------------ 
-|---------|---6--6-4-6--6--4-/-8--0-1---|------------------------------------ 
                                                                       
 
SONG LAYOUT: 
 
RIFF1 x4 
RIFF 2 x1 
LIL RIFF x1 
RIFF 1 x4 
RIFF2 x2 
RIFF3 x8 
RIFF2 x2
		   
AcordesyTabs.com © 2008 Acordes y Tablaturas para guitarra. Tabs and Chords for guitar. Aviso Legal - Contacto
El uso de este sitio está sujeto a la aceptación de los términos y condiciones (33 usuarios online)