tablaturas, partituras y acordes para guitarra
Busca por banda/artista:
 
y/o título de la canción:
A B C D E F G H I J K L M N O P Q R S T U V W X Y Z 0 1 2 3 4 5 6 7 8 9 / Top 100 tabs
Categorías
Usuarios
usuario:
Darse de alta
password:
Artistas más visitados
Publicidad
TOP acordes y tablaturas de Cky
:: Fat f - Cky


Estás en: Inicio > Letra C > Acordes y tablaturas de Cky > Phil margera
Phil margera
de Cky
Puntúa este acorde/tab:      
(0.5/5)
Reportar este acorde/tab
  Añadir a tus favoritos
  Imprimir
phil margera?s elvis song on his wedding with raab and divo 
 
 
viva la bam episode 4. 1st season 
 
 
TRANSCRIBED BY RUDY GUZMAN 
 
 
guzman84@hotmail.com 
 
 
e:----5-5-5-5----5-5-----5-5-5-5-5-5-5-5-----5---5-5-5---| 
B:----5-5-5-5----5-5---5-5-5-5-5-5-5-5-5-5-5-5-5-5-5-5-5-| 
G:-6--6-6-6-6--6-6-6-6-6-6-6-6-6-6-6-6-6-6-6-6-6-6-6-6-6-| 
D:-7--7-7-7-7--7-7-7-7-7-7-7-7-7-7-7-7-7-7-7-7-7-7-7-7-7-| 
A:-7--------7--7-----7-7-7-7-7-7-7-7-7-7-7-7-7-7-7-7-7-7-| 
E:-5--------5--5-----5-5-5-5-5-5-5-5-5-5-5-5-5-5-5-5-5-5-| 
 
 
e:----5-5-5-5----5-5-----5-5-5-5-5-5-5-5-----5---5-5-5---| 
B:----5-5-5-5----5-5---5-5-5-5-5-5-5-5-5-5-5-5-5-5-5-5-5-| 
G:-6--6-6-6-6--6-6-6-6-6-6-6-6-6-6-6-6-6-6-6-6-6-6-6-6-6-| 
D:-7--7-7-7-7--7-7-7-7-7-7-7-7-7-7-7-7-7-7-7-7-7-7-7-7-7-| 
A:-7--------7--7-----7-7-7-7-7-7-7-7-7-7-7-7-7-7-7-7-7-7-| 
E:-5--------5--5-----5-5-5-5-5-5-5-5-5-5-5-5-5-5-5-5-5-5-| 
 
 
e:-------------------------------------------------------| 
B:---7-7-7-------7------7-7-7---7--7-7-7-7-7-7-7-7-7-7-7-| 
G:---7-7-7-----7-7--7---7-7-7-7-7--7-7-7-7-7-7-7-7-7-7-7-| 
D:-7-7-7-7--7--7-7--7-7-7-7-7-7-7--7-7-7-7-7-7-7-7-7-7-7-| 
A:-5--------5--5-5--5-5-5-5-5-5-5--5-5-5-5-5-5-5-5-5-5-5-| 
E:-------------------------------------------------------| 
 
e:----5-5-5-5----5-5-----5-5-5-5-5-5-5-5-----5---5-5-5---| 
B:----5-5-5-5----5-5---5-5-5-5-5-5-5-5-5-5-5-5-5-5-5-5-5-| 
G:-6--6-6-6-6--6-6-6-6-6-6-6-6-6-6-6-6-6-6-6-6-6-6-6-6-6-| 
D:-7--7-7-7-7--7-7-7-7-7-7-7-7-7-7-7-7-7-7-7-7-7-7-7-7-7-| 
A:-7--------7--7-----7-7-7-7-7-7-7-7-7-7-7-7-7-7-7-7-7-7-| 
E:-5--------5--5-----5-5-5-5-5-5-5-5-5-5-5-5-5-5-5-5-5-5-| 
 
e:--------------------------------------------------| 
B:---9-9-9---9-9-9-9-9-9-9--7-7-7-7-7-7-7-7-7-7-7-7-| 
G:---9-9-9---9-9-9-9-9-9-9--7-7-7-7-7-7-7-7-7-7-7-7-| 
D:-9-9-9-9-9-9-9-9-9-9-9-9--7-7-7-7-7-7-7-7-7-7-7-7-| 
A:-7-------7---7-7-7-7-7-7--5-----5-5-5-5-5-5-5-5-5-| 
E:--------------------------------------------------| 
 
 
e:----5-5-5-5----5-5-----5-5-5-5-5-5-5-5-----5---5-5-5---| 
B:----5-5-5-5----5-5---5-5-5-5-5-5-5-5-5-5-5-5-5-5-5-5-5-| 
G:-6--6-6-6-6--6-6-6-6-6-6-6-6-6-6-6-6-6-6-6-6-6-6-6-6-6-| 
D:-7--7-7-7-7--7-7-7-7-7-7-7-7-7-7-7-7-7-7-7-7-7-7-7-7-7-| 
A:-7--------7--7-----7-7-7-7-7-7-7-7-7-7-7-7-7-7-7-7-7-7-| 
E:-5--------5--5-----5-5-5-5-5-5-5-5-5-5-5-5-5-5-5-5-5-5-| 
 
 
e:----5-5-5-5----5-5-----5-5-5-5-5-5-5-5-----5---5-5-5---| 
B:----5-5-5-5----5-5---5-5-5-5-5-5-5-5-5-5-5-5-5-5-5-5-5-| 
G:-6--6-6-6-6--6-6-6-6-6-6-6-6-6-6-6-6-6-6-6-6-6-6-6-6-6-| 
D:-7--7-7-7-7--7-7-7-7-7-7-7-7-7-7-7-7-7-7-7-7-7-7-7-7-7-| 
A:-7--------7--7-----7-7-7-7-7-7-7-7-7-7-7-7-7-7-7-7-7-7-| 
E:-5--------5--5-----5-5-5-5-5-5-5-5-5-5-5-5-5-5-5-5-5-5-| 
 
 
e:-------------------------------------------------------| 
B:---7-7-7-------7------7-7-7---7--7-7-7-7-7-7-7-7-7-7-7-| 
G:---7-7-7-----7-7--7---7-7-7-7-7--7-7-7-7-7-7-7-7-7-7-7-| 
D:-7-7-7-7--7--7-7--7-7-7-7-7-7-7--7-7-7-7-7-7-7-7-7-7-7-| 
A:-5--------5--5-5--5-5-5-5-5-5-5--5-5-5-5-5-5-5-5-5-5-5-| 
E:-------------------------------------------------------| 
 
e:----5-5-5-5----5-5-----5-5-5-5-5-5-5-5-----5---5-5-5---| 
B:----5-5-5-5----5-5---5-5-5-5-5-5-5-5-5-5-5-5-5-5-5-5-5-| 
G:-6--6-6-6-6--6-6-6-6-6-6-6-6-6-6-6-6-6-6-6-6-6-6-6-6-6-| 
D:-7--7-7-7-7--7-7-7-7-7-7-7-7-7-7-7-7-7-7-7-7-7-7-7-7-7-| 
A:-7--------7--7-----7-7-7-7-7-7-7-7-7-7-7-7-7-7-7-7-7-7-| 
E:-5--------5--5-----5-5-5-5-5-5-5-5-5-5-5-5-5-5-5-5-5-5-| 
 
e:--------------------------------------------------| 
B:---9-9-9---9-9-9-9-9-9-9--7-7-7-7-7-7-7-7-7-7-7-7-| 
G:---9-9-9---9-9-9-9-9-9-9--7-7-7-7-7-7-7-7-7-7-7-7-| 
D:-9-9-9-9-9-9-9-9-9-9-9-9--7-7-7-7-7-7-7-7-7-7-7-7-| 
A:-7-------7---7-7-7-7-7-7--5-----5-5-5-5-5-5-5-5-5-| 
E:--------------------------------------------------| 
 
e:----5-5-5-5----5-5-----5-5-5-5-5-5-5-5-----5---5-5-5---| 
B:----5-5-5-5----5-5---5-5-5-5-5-5-5-5-5-5-5-5-5-5-5-5-5-| 
G:-6--6-6-6-6--6-6-6-6-6-6-6-6-6-6-6-6-6-6-6-6-6-6-6-6-6-| 
D:-7--7-7-7-7--7-7-7-7-7-7-7-7-7-7-7-7-7-7-7-7-7-7-7-7-7-| 
A:-7--------7--7-----7-7-7-7-7-7-7-7-7-7-7-7-7-7-7-7-7-7-| 
E:-5--------5--5-----5-5-5-5-5-5-5-5-5-5-5-5-5-5-5-5-5-5-| 
 
e:-------------------------------------------| 
B:-------------------------------------------| 
G:--6-6-6-6-6-6-6-6-6-6-6-6-6-6-6-6-6-----6/-| 
D:--7-7-7-7-7-7-7-7-7-7-7-7-7-7-7-7-7-----7/-| 
A:--7-7-7-7-7-7-7-7-7-7-7-7-7-7-7-7-7-----7/-| 
E:--5-5-5-5-5-5-5-5-5-5-5-5-5-5-5-5-5-----5/-|
		   
AcordesyTabs.com © 2008 Acordes y Tablaturas para guitarra. Tabs and Chords for guitar. Aviso Legal - Contacto
El uso de este sitio está sujeto a la aceptación de los términos y condiciones (42 usuarios online)