tablaturas, partituras y acordes para guitarra
Busca por banda/artista:
 
y/o título de la canción:
A B C D E F G H I J K L M N O P Q R S T U V W X Y Z 0 1 2 3 4 5 6 7 8 9 / Top 100 tabs
Categorías
Usuarios
usuario:
Darse de alta
password:
Artistas más visitados
Publicidad
TOP acordes y tablaturas de Cky
:: Fat f - Cky


Estás en: Inicio > Letra C > Acordes y tablaturas de Cky > Pillaging ye olde food shoppe
Pillaging ye olde food shoppe
de Cky
Puntúa este acorde/tab:      
(0.4/5)
Reportar este acorde/tab
  Añadir a tus favoritos
  Imprimir
pillaging ye olde food shoppe 
 
 
viva la bam 3 episode 1st season 
 
 
TRANSCRIBED BY RUDY GUZMAN 
 
 
guzman84@hotmail.com 
 
 
e:-------------------------------------------------------------| 
B:-------------------------------------------------------------| 
G:-------------------------------------------------------5-4-2-| 
D:-9--9999999---------7--------------5--555555555--5-4-2-------| 
A:-7--7777777--10-9-7---10-9-7--5-3--3--333333333--------------| 
E:-------------------------------------------------------------| 
 
e:-----------------------------------------------------------------| 
B:-----------------------------------------------------------------| 
G:-------------------------------------------------------5-4-2-----| x3 
D:-9--9999999---------7--------------5--555555555--5-4-2-------5-4-| 
A:-7--7777777--10-9-7---10-9-7--5-3--3--333333333------------------| 
E:-----------------------------------------------------------------| 
 
 
e:-------------------------------------------| 
B:-------------------------------------------| 
G:-------------------------------5-4-2-------| 
D:-7p5-4---7p5-4---7p5-4-----5-4-------5-4-2-| x3 
A:-------7-------7--------7------------------| 
E:-------------------------------------------| 
 
e:------------------------| 
B:------------------------| 
G:------------------------| 
D:-9----------------------| 
A:-7----------------------| 
E:------------------------|
		   
AcordesyTabs.com © 2008 Acordes y Tablaturas para guitarra. Tabs and Chords for guitar. Aviso Legal - Contacto
El uso de este sitio está sujeto a la aceptación de los términos y condiciones (42 usuarios online)