tablaturas, partituras y acordes para guitarra
Busca por banda/artista:
 
y/o título de la canción:
A B C D E F G H I J K L M N O P Q R S T U V W X Y Z 0 1 2 3 4 5 6 7 8 9 / Top 100 tabs
Categorías
Usuarios
usuario:
Darse de alta
password:
Artistas más visitados
Publicidad
TOP acordes y tablaturas de Cky
:: Fat f - Cky


Estás en: Inicio > Letra C > Acordes y tablaturas de Cky > Planetary
Planetary
de Cky
Puntúa este acorde/tab:      
(0.7/5)
Reportar este acorde/tab
  Añadir a tus favoritos
  Imprimir
Main Riff/Intro x4  
-|---------------------------------------------------------------------------- 
-|---------------------------------------------------------------------------- 
-|-------5---9--0-----9--0-------------5---7--0----7------5------------------- 
-|-----7---7-----------------5-------7---7------------------------------------ 
-|--0--------------7-------7------0--------------7----7----------------------- 
-|---------------------------------------------------------------------------- 
                                                                   
    riff A                         riff B   x2  
-|---------------------------------------------------------------------------- 
-|---------------------------------------------------------------------------- 
-|------------------9999--7777------------------------------------------------ 
-|-77777-77-7777----9999--7777------------------------------------------------ 
-|-77777-77-7777----7777--5555------------------------------------------------ 
-|-55555-55-5555--------------------0-2-0-2-0-2-0-2-4-0-4-0-4-0-4-0----------- 
                                   
 
(Play Riff A, guitar 2) Solo   
-|---------------------------------------------------------------------------- 
-|---------------------------------------------------------------------------- 
-|-------------------------------------------------------------------------9-- 
-|-9--7p5h7~---7-5-7-12-10---9---7/7----------7/9---7/12-7/9-7-5-7-5h7---- 
-|---------------------------------------7--5-77------------------------------ 
-|---------------------------------------------------------------------------- 
                                                 
 
-|---------------------------------------------------------------------------- 
-|---------------------------------------------------------------------------- 
-|-7-------------------------------------------------------------------------- 
-|----9-7--5h7-7/9--9/12--14-12-14h16-14-12----------------------------------- 
-|---------------------------------------------------------------------------- 
-|---------------------------------------------------------------------------- 
                                                                               
break after solo   
-|---------------------------------------------------------------------------- 
-|---------------------------------------------------------------------------- 
-|-5----5555--7-5555-5--7-5555-5--7-5555/9999--------------------------------- 
-|-5-------------------------------------------------------------------------- 
-|-3-------------------------------------------------------------------------- 
-|---------------------------------------------------------------------------- 
                                                          
 
Lil Riff Guitar 2 plays "break after solo" 
-|---------------------------------------------------------------------------- 
-|---------------------------------------------------------------------------- 
-|---------------------------------------------------------------------------- 
-|---------------------------------------------------------------------------- 
-|-/12vv-/11vv-/10vv-/9vv-8-7vvvv------------------------------------------------ 
-|---------------------------------------------------------------------------- 
                                    
Outro...the parenthese is what the 2nd guitar plays                  
-|---------------------------------------------------------------------------- 
-|---------------------------------------------------------------------------- 
-|---------------9-9-xx7-7---------------------------------------------------- 
-|--(7)-(5)------------------------------------------------------------------- 
-|---------(7)---------------------------------------------------------------- 
-|--5---3---0-----------------------------------------------------------------
		   
AcordesyTabs.com © 2008 Acordes y Tablaturas para guitarra. Tabs and Chords for guitar. Aviso Legal - Contacto
El uso de este sitio está sujeto a la aceptación de los términos y condiciones (46 usuarios online)