tablaturas, partituras y acordes para guitarra
Busca por banda/artista:
 
y/o título de la canción:
A B C D E F G H I J K L M N O P Q R S T U V W X Y Z 0 1 2 3 4 5 6 7 8 9 / Top 100 tabs
Categorías
Usuarios
usuario:
Darse de alta
password:
Artistas más visitados
Publicidad
TOP acordes y tablaturas de Cky
:: Fat f - Cky


Estás en: Inicio > Letra C > Acordes y tablaturas de Cky > Plastic plan
Plastic plan
de Cky
Puntúa este acorde/tab:      
(0.6/5)
Reportar este acorde/tab
  Añadir a tus favoritos
  Imprimir
Intro/Verse 
G|---------------------------------------------------------------------------| 
D|----------2p-----------------------------2p--------------------------------| 
A|-------------2p-0-2--------------2-0---0-----------------------------------| 
E|-33333333-----------3-00000000-3-----3-------------------------------------| 

Chorus (repeat twice) 
G|---------------------------------------------------------------------------| 
D|---------------------------------------------------------------------------| 
A|---------------------2-------------------------------3-2----------22-------| 
E|-333333333-3-5-3-5-3---0000000000000000-111111111111-----55-33-55----5(8x)-| 

Bridge (Played after the small guitar solo) 
G|---------------------------------------------------------------------------| 
D|---------------------------------------------------------------------------| 
A|--------------3-2----------22----------------------------------------------| 
E|-111111111111-----55-33-55----55555555-------------------------------------|
		   
AcordesyTabs.com © 2008 Acordes y Tablaturas para guitarra. Tabs and Chords for guitar. Aviso Legal - Contacto
El uso de este sitio está sujeto a la aceptación de los términos y condiciones (40 usuarios online)