tablaturas, partituras y acordes para guitarra
Busca por banda/artista:
 
y/o título de la canción:
A B C D E F G H I J K L M N O P Q R S T U V W X Y Z 0 1 2 3 4 5 6 7 8 9 / Top 100 tabs
Categorías
Usuarios
usuario:
Darse de alta
password:
Artistas más visitados
Publicidad
TOP acordes y tablaturas de Cky
:: Fat f - Cky


Estás en: Inicio > Letra C > Acordes y tablaturas de Cky > Plastic plan
Plastic plan
de Cky
Puntúa este acorde/tab:      
(0.9/5)
Reportar este acorde/tab
  Añadir a tus favoritos
  Imprimir
cKy - Plastic Plan 
MAIN RIFF 
|----------------------------------------------------------------------------- |  x5 
|----------------------------------------------------------------------------- | 
|----------------------------------------------------------------------------- | 
|2-2-2-2-2-2-2-2---4-2------------------------------------------------4-2----- | 
|0-0-0-0-0-0-0-0--------4-2-0-2-4-0---4-4-4-4-4-4-4-4---5-4------2-------------| 
|-------------------------------------2-2-2-2-2-2-2-2--------5-----------------| 
 
MAIN RIFF VARIATION 
|-------------------------------------------------------------------------------  |  
|-------------------------------------------------------------------------------  | 
|-------------------------------------------------------------------------------  | 
|2-2-2-2-2-2-2-2---4-2------------------------------------------------------- --- | 
|0-0-0-0-0-0-0-0--------4-2-0-2-4-0---4-4-4-4-4-4-4-4---5-4----2-4-2-4-2----------| 
|-------------------------------------2-2-2-2-2-2-2-2--------5--------------------| 
 
PRE-CHORUS 
|----------------------------------------------------------------------------------- 
|----------------------------------------------------------------------------------- 
|----------------------------------------------------------------------------------- 
|2-2-2-2-2-2-2-2-------------------------------------------------------------------- 
|0-0-0-0-0-0-0-0---0-2-0-2-0-4--------4-4-4-4-4-4-4-4-4-4-4-4-4-4-4-4--------------- 
|-------------------------------------2-2-2-2-2-2-2-2-2-2-2-2-2-2-2-2--------------- 
 
----------------------------------------------------------------------------------| 
----------------------------------------------------------------------------------| 
----------------------------------------------------------------------------------| 
----------------------------------------------------------------------------------| 
5-5-5-5-5-5-5-5-5-5-5-5---5-5-4-4-2-2------2-2-4-4-2-2-2-2-2-2-2-2----------------| 
3-3-3-3-3-3-3-3-3-3-3-3---------------5-5-----------------------------------------| 
 
CHORUS 
|------------------------------------------------------------------------------ | x2 
|------------------------------------------------------------------------------ | 
|-------------------------------------------------------------------------------| 
|2-2-2-2-2-2-2-2---4-2-----------------------------------------------4-2------- | 
|0-0-0-0-0-0-0-0--------4-2-0-2-4-0---4-4-4-4-4-4-4-4---5-4-----2---------------| 
|-------------------------------------2-2-2-2-2-2-2-2--------5------------------| 
 
MAIN RIFF 
|----------------------------------------------------------------------------- |  x5 
|----------------------------------------------------------------------------- | 
|----------------------------------------------------------------------------- | 
|2-2-2-2-2-2-2-2---4-2-----------------------------------------------4-2------ | 
|0-0-0-0-0-0-0-0--------4-2-0-2-4-0---4-4-4-4-4-4-4-4---5-4-----2--------------| 
|-------------------------------------2-2-2-2-2-2-2-2--------5-----------------| 
 
 
MAIN RIFF VARIATION 
|--------------------------------------------------------------------------------- | 
|--------------------------------------------------------------------------------- | 
|--------------------------------------------------------------------------------- | 
|2-2-2-2-2-2-2-2---4-2-----------------------------------------------4-2---------- | 
|0-0-0-0-0-0-0-0--------4-2-0-2-4-0---4-4-4-4-4-4-4-4---5-4-----2------------------| 
|-------------------------------------2-2-2-2-2-2-2-2--------5---------------------| 
 
PRE-CHORUS 
|----------------------------------------------------------------------------------- 
|----------------------------------------------------------------------------------- 
|----------------------------------------------------------------------------------- 
|2-2-2-2-2-2-2-2-------------------------------------------------------------------- 
|0-0-0-0-0-0-0-0---0-2-0-2-0-4--------4-4-4-4-4-4-4-4-4-4-4-4-4-4-4-4--------------- 
|-------------------------------------2-2-2-2-2-2-2-2-2-2-2-2-2-2-2-2--------------- 
 
----------------------------------------------------------------------------------| 
----------------------------------------------------------------------------------| 
----------------------------------------------------------------------------------| 
----------------------------------------------------------------------------------| 
5-5-5-5-5-5-5-5-5-5-5-5---5-5-4-4-2-2------2-2-4-4-2-2-2-2-2-2-2-2----------------| 
3-3-3-3-3-3-3-3-3-3-3-3---------------5-5-----------------------------------------| 
 
CHORUS 
|---------------------------------------------------------------------------- |  x4 
|---------------------------------------------------------------------------- | 
|---------------------------------------------------------------------------- | 
|2-2-2-2-2-2-2-2---4-2-----------------------------------------------4-2----- | 
|0-0-0-0-0-0-0-0--------4-2-0-2-4-0---4-4-4-4-4-4-4-4---5-4-----2-------------| 
|-------------------------------------2-2-2-2-2-2-2-2--------5----------------| 
 
BRIDGE---GUITAR 1 
|---------------------------------------------------------------------------- |  x2 
|---------------------------------------------------------------------------- | 
|---------------------------------------------------------------------------- | 
|2-2-2-2-2-2-2-2---4-2-----------------------------------------------4-2----- | 
|0-0-0-0-0-0-0-0--------4-2-0-2-4-0---4-4-4-4-4-4-4-4---5-4-----2-------------| 
|-------------------------------------2-2-2-2-2-2-2-2--------5----------------| 
 
BRIDGE---GUITAR 2 
|-------------------------------------------------------------------------------| x2 
|-------------------------------------------------------------------------------| 
|-------------------------------------------------------------------------------| 
|----------------------------------7-6------------------------------------------| 
|------7-4-------7-4------7-4---------7---------4-0------4-0-----5-4-0-2-4-2-4--| 
|5-5-------5-5-------5-5------5------------2-2------2-2-------2-----------------| 
 
BRIDGE 2---BOTH GUITARS 
|-------------------------------------------------------------------| 
|-------------------------------------------------------------------| 
|-------------------------------------------------------------------| 
|-------------------------------------------------------------------| 
|5-5-5-5-5-5-5-5-5-5-5-5--5-5-4-4-2-2-----2-2-4-4-2-2-2-2-2-2-2-2---| 
|3-3-3-3-3-3-3-3-3-3-3-3--------------5-5---------------------------| 
 
MAIN RIFF 
|----------------------------------------------------------------------------- |  x5 
|----------------------------------------------------------------------------- | 
|----------------------------------------------------------------------------- | 
|2-2-2-2-2-2-2-2---4-2--------------------------------------------------4-2--- | 
|0-0-0-0-0-0-0-0--------4-2-0-2-4-0----------4-4-4-4-4-4-4-4---5-4----2--------| 
|--------------------------------------------2-2-2-2-2-2-2-2--------5----------| 
 
Tabbed by: Jeff Morris 		   
AcordesyTabs.com © 2008 Acordes y Tablaturas para guitarra. Tabs and Chords for guitar. Aviso Legal - Contacto
El uso de este sitio está sujeto a la aceptación de los términos y condiciones (48 usuarios online)