tablaturas, partituras y acordes para guitarra
Busca por banda/artista:
 
y/o título de la canción:
A B C D E F G H I J K L M N O P Q R S T U V W X Y Z 0 1 2 3 4 5 6 7 8 9 / Top 100 tabs
Categorías
Usuarios
usuario:
Darse de alta
password:
Artistas más visitados
Publicidad
TOP acordes y tablaturas de Cky
:: Fat f - Cky


Estás en: Inicio > Letra C > Acordes y tablaturas de Cky > Quite bitter beings
Quite bitter beings
de Cky
Puntúa este acorde/tab:      
(0.4/5)
Reportar este acorde/tab
  Añadir a tus favoritos
  Imprimir
CKY - QUITE BITTER BEINGS 
 
 
RIIFF1 
E----------------------------------------------- 
B----------------------------------------------- 
G------------------------------------------------      REAPEAT 4X IN THE FIRST 2 AND 9X ON THE LAST ONE 
D-------------------------------2--------------- 
A-----2-----------2-3-2-------3?--3-2-0--2------ 
E-0-3---0---0-0-3-------3-2-0-----------3--3---- 
              
 
 
RIFF 2 
E----------------------------------- 
B---------------------------------- 
G----------------------------------	REAPEAT 9X 1ST AND 7X 2ND 
D---------------------------------- 
A-7-7-7--6--4-4---------------- 
E-5-5-5--4--2-2---------------- 
 
 
RIFF3 
E---------------------------------- 
B---------------------------------- 
G----------------------------------	REAPEAT 8X BOTH TIMES 
D--5-5-5-5-5--2-2-2-2-2------- 
A--5-5-5-5-5--2-2-2-2-2------- 
E--5-5-5-5-5--2-2-2-2-2------- 
 
 
RIFF4 
	ORDER 
E----------------------------------	1,2,1,2,3,4,3, 
B----------------------------------	4,2 
G----------------------------------	REPEAT 4X BOTH TIMES 
D----------------------------------	 
A-7-7-7--8--4-4-4-------------- 
E-5-5-5--6--2-2-2--------------	 
 
 
	WELL THAT?S IT THE ONLY HARD PART IS THE TIMMING SEND SUGGESTION OR COMPLAINTS TO BJBLADES@HOTMAIL.COM
		   
AcordesyTabs.com © 2008 Acordes y Tablaturas para guitarra. Tabs and Chords for guitar. Aviso Legal - Contacto
El uso de este sitio está sujeto a la aceptación de los términos y condiciones (20 usuarios online)