tablaturas, partituras y acordes para guitarra
Busca por banda/artista:
 
y/o título de la canción:
A B C D E F G H I J K L M N O P Q R S T U V W X Y Z 0 1 2 3 4 5 6 7 8 9 / Top 100 tabs
Categorías
Usuarios
usuario:
Darse de alta
password:
Artistas más visitados
Publicidad
TOP acordes y tablaturas de Cky
:: Fat f - Cky


Estás en: Inicio > Letra C > Acordes y tablaturas de Cky > Rio bravo
Rio bravo
de Cky
Puntúa este acorde/tab:      
(0.9/5)
Reportar este acorde/tab
  Añadir a tus favoritos
  Imprimir
Tuning: full step down; Low to High: D G C F A D)  
 
Intro  
---------------------------------------------------------------------------------  
---------------------------------------------------------------------------------  
---------------------------------------------------------------------------------  
---8---8---8-----8-8---8---8---8-----8-8---8---8---8-----8-8-----------------8-8-  
---7---7---7-----7-7---7---7---7-----7-7---7---7---7-----7-7-2---2---2-------7-7-  
-0---0---0-----------0---0---0-----------0---0---0-----------0---0---0-----------  
 
Intro 2  
-----------------------------------------------------------------  
-----------------------------------------------------------------  
-----------------------------------------------------------------  
---8---9-8-7~------------5---------------------------------------  
---7-----------7---5-6-7-------------9-8-7~------------5---------  
-0---0------------------------0--0-0---------0---5-6-7---7-6-5-3-  
 
--------------------------------------------------------------  
--------------------------------------------------------------  
--------------------------------------------------------------  
----9-8-7~------------5---------------------------------------  
------------7---5-6-7-------------9-8-7~------------5---------  
-0-------------------------0--0-0---------0---5-6-7---7-6-5-3-  
 
-----------------------------------------------------  
-----------------------------------------------------  
-----------------------------------------------------  
---9-8-7~------------5-------------------------------  
-----------7---5-6-7---------------9-8-7~----------5-  
-0--------------------------0--0-0---------0--5-6-7--  
 
-----------------------------------------------------------------------------  
-----------------------------------------------------------------------------  
-----------------------------------------------------------------------------  
----------------5---------------5---------9-8-7---------------------5---------  
----------5-6-7-----------5-6-7---2--2-----------7------------5-6-7-----------  
-7-6-5-3----------7-6-5-3---------0--0-------------7-6-5-3------------7-6-5-3-  
 
 
After barking noise:  
 
d:---------- 
a:---------- 
f:---------- 
c:---------- 
g:---------- 
D: -7-6-5-3- 
 
Verse 12x  
---------------------  
---------------------  
---------------------  
---8---8---8-----8-8-  
---7---7---7-----7-7-  
-0---0---0-----------  
 
I've seen it done like  
The way the dogs do  
I'll think it over  
We're standing into  
Your phony life but now it's all dry  
Can't take it you will see  
Not more than others  
Your phony li-hi-hi-ife  
Like I don't hear them, but I'll tell you something else  
When we get to the desert it's out out OUT!  
 
Chorus 4x  
--------------------------------------------------------------  
--------------------------------------------------------------  
--------------------------------------------------------------  
----9-8-7~------------5---------------------------------------  
------------7---5-6-7-------------9-8-7~------------5---------  
-0--------------------------0--0-0--------0---5-6-7---7-6-5-3- 
 
What we left in the past  
It tears me up  
 
Alternate Verse  
-------------------------------------------------  
-------------------------------------------------  
-------------------------------------------------  
-------------------------------------------------  
-7----------------------7------------------------  
-------7--10-6-----5--3-0----7--10-6-------------  
 
Pulled into a truck stop  
My luck is over  
The plan is failing  
I think not!  
 
Bridge (bass) 
------------------------------------------------------------------------------------------  
------------------------------------------------------------------------------------------  
------------------------------------------------------------------------------------------  
------------------------------------------------------------------------------------------  
--------------9---9-8-7-------------5---9---9-8-7-----------5-----9---9-8-7-------------5-  
-0----------------------0---5-6-7-----0-----------0---5-6-7-----0-----------0---5-6-7-----  
 
--------------------------------  
--------------------------------  
--------------------------------  
--------------------11--11-10-9-  
-----9---9-8-7-------9---9--8-7-  
-0---------------0--------------  
                     ^guitar plays 
 
 
Chorus 4x with lyrics  
 
What we left in the past  
It tears me up  
 
Verse 8x with lyrics  
 
"It's not what you're used to..." 
 
Outro  
---  
---  
---  
-2-  
-2-  
-0-
		   
AcordesyTabs.com © 2008 Acordes y Tablaturas para guitarra. Tabs and Chords for guitar. Aviso Legal - Contacto
El uso de este sitio está sujeto a la aceptación de los términos y condiciones (54 usuarios online)