tablaturas, partituras y acordes para guitarra
Busca por banda/artista:
 
y/o título de la canción:
A B C D E F G H I J K L M N O P Q R S T U V W X Y Z 0 1 2 3 4 5 6 7 8 9 / Top 100 tabs
Categorías
Usuarios
usuario:
Darse de alta
password:
Artistas más visitados
Publicidad
TOP acordes y tablaturas de Cky
:: Fat f - Cky


Estás en: Inicio > Letra C > Acordes y tablaturas de Cky > Ryan my wife
Ryan my wife
de Cky
Puntúa este acorde/tab:      
(1.2/5)
Reportar este acorde/tab
  Añadir a tus favoritos
  Imprimir
ryan *** my wife! we were going to get married 
 
 
cky 4 
 
 
TRANSCRIBED BY RUDY GUZMAN 
 
 
guzman84@hotmail.com 
 
 
e:----------------------------| 
B:-3/5-5-3--------------------| 
G:---------4/2-0--------------| 
D:----------------------------| 
A:----------------2-2---2-2---| 
E:----------------0-0-3-0-0-3-| 
 
e:----------------------------| 
B:-3/5-5-3--------------------| 
G:---------4/2-0--------------| 
D:----------------------------| 
A:----------------2-2---2-2---| 
E:----------------0-0-3-0-0-3-| 
 
e:----------------------------| 
B:-3/5-5-3--------------------| 
G:---------4/2-0--------------| 
D:----------------2-2---2-2---| 
A:----------------0-0-3-0-0-3-| 
E:----------------------------| 
 
e:----------------------------| 
B:-3/5-5-3--------------------| 
G:---------4/2-0--------------| 
D:----------------------------| 
A:----------------2-2---2-2---| 
E:----------------0-0-3-0-0-3-| 
 
e:----------------------------| 
B:-3/5-5-3--------------------| 
G:---------4/2-0--------------| 
D:----------------4-4---4-4---| 
A:----------------2-2-5-2-2-5-| 
E:----------------------------| 
  
                   
e:----------------------------| 
B:-3/5-5-3--------------------| 
G:---------4/2-0--------------| 
D:----------------------------| 
A:----------------2-2---2-2---| 
E:----------------0-0-3-0-0-3-| 
 
 
                  verse 
e:----------------------------| 
B:-3/5-5-3--------------------| 
G:---------4/2-0--------------| 
D:----------------------------| 
A:----------------2-2---2-2---| 
E:----------------0-0-3-0-0-3-| 
 
e:----------------------------| 
B:-3/5-5-3--------------------| 
G:---------4/2-0--------------| 
D:----------------2-2---2-2---| 
A:----------------0-0-3-0-0-3-| 
E:----------------------------| 
 
e:----------------------------| 
B:-3/5-5-3--------------------| 
G:---------4/2-0--------------| 
D:----------------------------| 
A:----------------2-2---2-2---| 
E:----------------0-0-3-0-0-3-| 
 
e:----------------------------| 
B:-3/5-5-3--------------------| 
G:---------4/2-0--------------| 
D:----------------4-4---4-4---| 
A:----------------2-2-5-2-2-5-| 
E:----------------------------| 
 
e:----------------------------| 
B:-3/5-5-3--------------------| 
G:---------4/2-0--------------| 
D:----------------------------| 
A:----------------2-2---2-2---| 
E:----------------0-0-3-0-0-3-| 
 
                  verse 
e:-------------------------------| 
B:-3/5-5-3-----------------------| 
G:---------4/2----0--------------| 
D:-------------------------------| 
A:-------------------2-2---2-2---| 
E:-------------------0-0-3-0-0-3-| 
 
e:----------------------------| 
B:-3/5-5-3--------------------| 
G:---------4/2-0--------------| 
D:----------------2-2---2-2---| 
A:----------------0-0-3-0-0-3-| 
E:----------------------------| 
 
e:----------------------------| 
B:-3/5-5-3--------------------| 
G:---------4/2-0--------------| 
D:----------------------------| 
A:----------------2-2---2-2---| 
E:----------------0-0-3-0-0-3-| 
 
e:----------------------------| 
B:-3/5-5-3--------------------| 
G:---------4/2-0--------------| 
D:----------------4-4---4-4---| 
A:----------------2-2-5-2-2-5-| 
E:----------------------------| 
 
e:----------------------------| 
B:-3/5-5-3--------------------| 
G:---------4/2-0--------------| 
D:----------------------------| 
A:----------------2-2---2-2---| 
E:----------------0-0-3-0-0-3-|
		   
AcordesyTabs.com © 2008 Acordes y Tablaturas para guitarra. Tabs and Chords for guitar. Aviso Legal - Contacto
El uso de este sitio está sujeto a la aceptación de los términos y condiciones (28 usuarios online)