tablaturas, partituras y acordes para guitarra
Busca por banda/artista:
 
y/o título de la canción:
A B C D E F G H I J K L M N O P Q R S T U V W X Y Z 0 1 2 3 4 5 6 7 8 9 / Top 100 tabs
Categorías
Usuarios
usuario:
Darse de alta
password:
Artistas más visitados
Publicidad
TOP acordes y tablaturas de Cky
:: Fat f - Cky


Estás en: Inicio > Letra C > Acordes y tablaturas de Cky > Santa's coming
Santa's coming
de Cky
Puntúa este acorde/tab:      
(0.7/5)
Reportar este acorde/tab
  Añadir a tus favoritos
  Imprimir
Santa's Coming -- Camp Kill Yourself with Bam Margera 
From Volume Two 
Tab by Tom Gordon (tomathy17@hotmail.com) 
http://www.cky.8k.com/ 
 
If anyone feels like organizing this into the correct sections and stuff 
for me, please be my guest. - John 
 
Tuned Down 1/2 Step (Eb Ab Db Gb Bb Eb) 
 
Intro 
 
----------------------------------- 
----------------------------------- 
-7---7-7/9/7---7---7/9/7----------- 
---7---------9---7-------9 7/5----- 
-------------------------------7--- 
----------------------------------- 
 
------------------------------------------------ 
------------------------------------------------ 
------------77---------------------------------- 
------7777/9-------777-9-7-55-4-7---4-2-4/5-4/5- 
-5/9-----------5/9-----------------5------------ 
------------------------------------------------ 
 
--------------------------------------- 
--------------------------------------- 
----7---7-7/9/7---7---7/9/7------------ 
------7---------9---7--------9-7/5----- 
-4----------------------------------7-- 
--------------------------------------- 
 
Verse 
 
6------------------------------------------------ 
5------------------------------------------------ 
4------------77------------------777-9-888888888- 
3-----7777/9---------777-9-7-55--777-9-888888888- 
2-5/9------------5/9-------------555-7-666666666- 
1------------------------------------------------ 
PM                                ..    ........ 
 
'he knows when you are sleeping......' 
--------------------------------------------------------------- 
--------------------------------------------------------------- 
-7-9-7-6-7----7-9-7-6-7---9-11-9-8-9--------------9------------ 
-----------99-----------9------------11-11-11-12----12-11-9-7~- 
--------------------------------------------------------------- 
--------------------------------------------------------------- 
 
You better watch out, you better not cry 
You better not pout I'm telling you why 
 
Cause I'm gonna kill you!  I'm gonna kill you!  ***! 
 
He's making a list, he's checking it twice 
He's gonna find out who's a ***er... 
 
And nobody's getting ***!  You hear me? 
Nobody's getting any toys!  ***! 
Nobody's getting ***! 
 
He knows when you are sleeping, he knows when you're awake 
He doesn't know a god *** thing 'cause the whole ***ing thing is fake 
 
"Santa, is there anything I can do?" 
"Is there anything you can do?  You can GET BACK TO WORK!" 
 
You better watch out, you better not cry 
You better not pout I'm telling you why 
 
Cause I'm gonna kill you!  I'm gonna kill you!  ***! 
 
He's making a list, he's checking it twice 
He's gonna find out who's a ***er... 
 
And nobody's getting ***!  You hear me? 
Nobody's getting any more toys!  ***! 
I want some ***in *can't unnderstand it* 
 
He knows when you are sleeping, he knows when you're awake 
Your stocking's filled with coal because you're a spoiled brat-ass dick 
 
You better make sure you learn how to spell 
Cause if you don't you're burning in hell 
 
Santa Claus is coming, I said Santa Claus is coming, 
I said Santa Claus is coming, I said Santa Claus is coming, 
Santa Claus is coming to town 
***
		   
AcordesyTabs.com © 2008 Acordes y Tablaturas para guitarra. Tabs and Chords for guitar. Aviso Legal - Contacto
El uso de este sitio está sujeto a la aceptación de los términos y condiciones (14 usuarios online)