tablaturas, partituras y acordes para guitarra
Busca por banda/artista:
 
y/o título de la canción:
A B C D E F G H I J K L M N O P Q R S T U V W X Y Z 0 1 2 3 4 5 6 7 8 9 / Top 100 tabs
Categorías
Usuarios
usuario:
Darse de alta
password:
Artistas más visitados
Publicidad
TOP acordes y tablaturas de Cky
:: Fat f - Cky


Estás en: Inicio > Letra C > Acordes y tablaturas de Cky > Sara's mask
Sara's mask
de Cky
Puntúa este acorde/tab:      
(0.9/5)
Reportar este acorde/tab
  Añadir a tus favoritos
  Imprimir
Cky - Sara's Mask 
Album: Volume 1 
Tuning:  Standard 
Comments: davidcouture@hotmail.com 
 
 
Verse: 
 
--------------------------------------------------------------- 
--------------------------------------------------------------- 
-----------------------5--------------------------------------- 
--------------7-----------7------------------------------------ 
-----------------7-----------7--3--5----5--3--5--7------------- 
0h1--/--5------------------------------------------------------ 
 
--------------------------------------------------------------- 
--------------------------------------------------------------- 
-----------------------5--------------------------------------- 
--------------7-----------7----------------------5------------- 
-----------------7-----------7--3--5----5--3--5---------------- 
0h1--/--5------------------------------------------------------ 
 
---------------------------------------------------------------- 
---------------------------------------------------------------- 
-----------------------5---------------------------------------- 
--------------7-----------7-------------------------------------   Repeat 2x 
-----------------7-----------7--3--5----5--3--5--7-------------- 
0h1--/--5------------------------------------------------------- 
 
 
----------------------------------------------------------------- 
----------------------------------------------------------------- 
----------------------------------------------------------------- 
-----10p9--9/5-5--------2---------------------------------------- 
---------------------5-----5--3-3/5--5--7--5-5-----5--3---------- 
5-----------------------------------------------3---------------- 
 
----------------------------------------------------------------- 
----------------------------------------------------------------- 
----------------------------------------------------------------- 
-----10p9--9/5-5---------7/5--5/7/5--2-----------2--------------- 
----------------------------------------5--3--5-----5------5--3-- 
5-------------------------------------------------------3-------- 
 
----------------------------------------------------------------- 
----------------------------------------------------------------- 
----------------------------------------------------------------- 
-----10p9--9/5-5--------2----------------------------------------  Repeat 2x 
---------------------5-----5--3-3/5--5--7--5-5-----5--3---------- 
5-----------------------------------------------3---------------- 
 
----------------------------------------------------------------- 
----------------------------------------------------------------- 
-----------------------------------------------------------------  Start playing with distortion here 
---------------7--5---------------------------------------------- 
5--6--7--5--3--5--3-----5--6--7--5--3--7--5----5----3/7---------- 
3--4--5--3--1-----------3--4--5--3--1--5--3----3----1/5---------- 
 
 
Repeat verse 
 
----------------------------------------------------------------- 
----------------------------------------------------------------- 
----------------------------------------------------------------- 
---------------7--5---------------------------------------------- 
5--6--7--5--3--5--3-----5--6--7--5--3--7--5----5----------------- 
3--4--5--3--1-----------3--4--5--3--1--5--3----3----------------- 
 
 
Guitar 1 plays verse, guitar 2 comes in and plays: 
 
----------------------------------------------------------------- 
----------------------------------------------------------------- 
-----------------------------------------------------------------  Start playing clean again here 
-----10p9--9/5-5--------10----10--5-5---------------------------- 
----------------------------------------------------------------- 
5---------------------------------------------------------------- 
 
----------------------------------------------------------------- 
----------------------------------------------------------------- 
----------------------------------------------------------------- 
-----10p9--9/5-5--------------10--5-5---------------------------- 
----------------------------------------------------------------- 
5---------------------------------------------------------------- 
 
----------------------------------------------------------------- 
----------------------------------------------------------------- 
-----------------------------------------------------------------  Repeat 2x 
-----10p9--9/5-5--------10----10--5-5---------------------------- 
----------------------------------------------------------------- 
5---------------------------------------------------------------- 
 
 
 
----------------------------------------------------------------- 
----------------------------------------------------------------- 
-----------------------------------------------------------------  Start playing with distortion again here 
---------------7--5---------------------------------------------- 
5--6--7--5--3--5--3-----5--6--7--5--3--7--5----5----3/7---------- 
3--4--5--3--1-----------3--4--5--3--1--5--3----3----1/5---------- 
 
Play verse 
 
----------------------------------------------------------------- 
----------------------------------------------------------------- 
----------------------------------------------------------------- 
---------------7--5---------------------------------------------- 
5--6--7--5--3--5--3-----5--6--7--5--3--7--5----5----------------- 
3--4--5--3--1-----------3--4--5--3--1--5--3----3----------------- 
 
Bridge: 
 
----------------------------------------------------------------- 
----------------------------------------------------------------- 
-----------------------------------------------------------------  Guitar 1, repeat 4x 
----------------------------------------------------------------- 
----------------------------------------------------------------- 
5--5-5--5-8--5-7--3---------------------------------------------- 
 
----------------------------------------------------------------- 
----------------------------------------------------------------- 
----------------------------------------------------------------- 
-----------------------------------------------------------------  Guitar 2, repeat 4x 
----------------------------------------------------------------- 
3b--------------------------------------------------------------- 
 
 
----------------------------------------------------------------- 
----------------------------------------------------------------- 
----------------------------------------------------------------- 
---------------5-------------------------------------------------  Repeat 3x 
5--5-5--5-7--7----5---------------------------------------------- 
----------------------------------------------------------------- 
 
----------------------------------------------------------------- 
----------------------------------------------------------------- 
----------------------------------------------------------------- 
------------------5---------------------------------------------- 
--------5-7--5-7------------------------------------------------- 
0--0-0----------------------------------------------------------- 
 
Repeat bridge, then repeat again 
 
Guitar 2 plays the addition to the verse from before while guitar 1 plays: 
 
----------------------------------------------------------------- 
----------------------------------------------------------------- 
----------------------------------------------------------------- 
-----10p9--9/5-5--------2----------------------------------------  Start playing clean again 
---------------------5-----5--3-3/5--5--7--5-5-----5--3---------- 
5-----------------------------------------------3---------------- 
 
----------------------------------------------------------------- 
----------------------------------------------------------------- 
----------------------------------------------------------------- 
-----10p9--9/5-5---------7/5----7/5--2-----------2---------------  Note how you don't slide up from 5 this time 
----------------------------------------5--3--5-----5------5--3-- 
5-------------------------------------------------------3-------- 
 
----------------------------------------------------------------- 
----------------------------------------------------------------- 
----------------------------------------------------------------- 
-----10p9--9/5-5--------2----------------------------------------  Repeat 2x 
---------------------5-----5--3-3/5--5--7--5-5-----5--3---------- 
5-----------------------------------------------3---------------- 
 
----------------------------------------------------------------- 
----------------------------------------------------------------- 
-----------------------------------------------------------------  With distortion 
---------------7--5---------------------------------------------- 
5--6--7--5--3--5--3-----5--6--7--5--3--7--5----5----------------- 
3--4--5--3--1-----------3--4--5--3--1--5--3----3-----------------
		   
AcordesyTabs.com © 2008 Acordes y Tablaturas para guitarra. Tabs and Chords for guitar. Aviso Legal - Contacto
El uso de este sitio está sujeto a la aceptación de los términos y condiciones (31 usuarios online)