tablaturas, partituras y acordes para guitarra
Busca por banda/artista:
 
y/o título de la canción:
A B C D E F G H I J K L M N O P Q R S T U V W X Y Z 0 1 2 3 4 5 6 7 8 9 / Top 100 tabs
Categorías
Usuarios
usuario:
Darse de alta
password:
Artistas más visitados
Publicidad
TOP acordes y tablaturas de Cky
:: Fat f - Cky


Estás en: Inicio > Letra C > Acordes y tablaturas de Cky > Shippensbam
Shippensbam
de Cky
Puntúa este acorde/tab:      
(0.5/5)
Reportar este acorde/tab
  Añadir a tus favoritos
  Imprimir
Tabbed by: wikidFaget

standart tuning (G,D,A,E) 

I think this tab is much more complete than the one before.

Verse
G--------------------------------------------
D------------------7-5-----------------2-----
A---5-5-7-8------------------5----3-3----3---
E------------6-6---------3-3---3-------------

Riff 1
G-----------------------
D-----------------------
A---33--------55--------
E--------33--------33---

pre-Chorus  (let notes ring)
G-----------------------
D-----------------------
A---3---------5----1----
E--------3--------------

Chorus
G-------------------------------------------------------------------------
D-------------------------------------------------------------------------
A---3333333333333333------------------1111111111111111-5555555555555555---
E--------------------3333333333333333-------------------------------------

after-Chorus
G-------------------------
D-------------------------
A---3333------1111-5555---
E--------3333-------------

Fill 1
G--------------
D--------------
A--------------
E---1-3-1-3----

Riff 2
G-------------------------------------------
D-------------------------------------------
A---3--3--------1--1--3-5-3-5--3--3---------
E---------3--3-----------------------3--3---

part a 
G-------------------------
D-------------------------
A---5555-1111------3333---
E-------------3333--------

part b 
G--------------------
D--------------------
A---55--11------33---
E-----------33-------

Song Structure

Verse x4
Riff 1 x2
Verse x4
pre-Chorus x1
Chorus x1
Verse x8
Chorus x1
after Chorus x1
Fill 1 x4
Riff 2 x1
Fill 1 x4
part a x4
part b x4
verse x4
Riff 2 x1
Fill 1 x4
Riff 2 x1
Fill 1 x8

That's it.Have fun.
		   
AcordesyTabs.com © 2008 Acordes y Tablaturas para guitarra. Tabs and Chords for guitar. Aviso Legal - Contacto
El uso de este sitio está sujeto a la aceptación de los términos y condiciones (26 usuarios online)