tablaturas, partituras y acordes para guitarra
Busca por banda/artista:
 
y/o título de la canción:
A B C D E F G H I J K L M N O P Q R S T U V W X Y Z 0 1 2 3 4 5 6 7 8 9 / Top 100 tabs
Categorías
Usuarios
usuario:
Darse de alta
password:
Artistas más visitados
Publicidad
TOP acordes y tablaturas de Cky
:: Fat f - Cky


Estás en: Inicio > Letra C > Acordes y tablaturas de Cky > Shock and terror
Shock and terror
de Cky
Puntúa este acorde/tab:      
(0.7/5)
Reportar este acorde/tab
  Añadir a tus favoritos
  Imprimir
Artist: Cky 
Song: Shock and Terror 
Album: Infiltrate Destroy Rebuild 
Tabbed by: Craig Gibson 
Email: IbanezRgr320@Hotmail.com 
 
 
RIFF 1 
-|---|------------------------------------------------------------------------ 
-|---|------------------------------------------------------------------------ 
-|---|------------------------------------------------------------------------ 
-|-8-|----------6-------------------------6-----------------------6----------- 
-|-6-|7-4-4-7/9--------------7-9-7---7/9-------------/9-7-7-7/9------------- 
-|---|------------7-4-2-0----------9--------7-4-2-0------------------7-4-2-0-- 
      RIFF 1                                                                  
 
-|------------------------|--------------------------------------------------- 
-|------------------------|--------------------------------------------------- 
-|------------------------|--------------------------------------------------- 
-|-------------6----------|---999-666-101010-666------------------------------ 
-|-7-9-7---7/9------------|--------------------------------------------------- 
-|-------9-------7-4--8-4-|--------------------------------------------------- 
                               
 
VERSE x 4 
|--------------------------------------------------- 
|--------------------------------------------------- 
|--------------9----11-------------------9---11----- 
|-11-11----------9----9-----11-11----------9---11--- 
|-------11-12---------------------11-12------------- 
|--------------------------------------------------- 
 
 
RIFF 1  
 
VERSE x 4 
 
 
CHORUS X4 
|-------------------------------------------------------- 
|-------------------------------------------------------- 
|-------------------------------------------------------- 
|--------/2-----------------------------------4-/6-4-2--- 
|-/4-2-4----4-2---2-4-2------2-2--2--2------------------- 
|---------------4-------4--4-----------4-4-4------------- 
 
RIFF 1 
 
VERSE x 4 
 
CHORUS X4 
 
RIFF 1 X2
		   
AcordesyTabs.com © 2008 Acordes y Tablaturas para guitarra. Tabs and Chords for guitar. Aviso Legal - Contacto
El uso de este sitio está sujeto a la aceptación de los términos y condiciones (20 usuarios online)