tablaturas, partituras y acordes para guitarra
Busca por banda/artista:
 
y/o título de la canción:
A B C D E F G H I J K L M N O P Q R S T U V W X Y Z 0 1 2 3 4 5 6 7 8 9 / Top 100 tabs
Categorías
Usuarios
usuario:
Darse de alta
password:
Artistas más visitados
Publicidad
TOP acordes y tablaturas de Cky
:: Fat f - Cky


Estás en: Inicio > Letra C > Acordes y tablaturas de Cky > Sink into the underground
Sink into the underground
de Cky
Puntúa este acorde/tab:      
(0.6/5)
Reportar este acorde/tab
  Añadir a tus favoritos
  Imprimir
|------------------------------------------------------------------| 
|------------------------------------------------------------------| 
|------------------------------------------------------------------| 
|---------1-1-4-4-2-2-1-1-----1--------1-1-------------------1-----| 
|-----2-2-----------------4-2---2----------4-4-2-2-------------4-2-| 
|-4-4------------------------------2-2-------------4-4-2-2-4-------| 
|guitar 2: 
|---------------------------------------------------------------------------| 
|---------------------------------------------------------------------------| 
|-----------8-8-11-11-9-9---------8-------8-8------------------------8------| 
|-------9-9---------------11-11-9---9---------11-11-9-9----------------11-9-| 
|-11-11-------------------------------9-9---------------11-11-9-9-11--------| 
|---------------------------------------------------------------------------| 
 
Verse: 
|-----------------| 
|-----------------| 
|-----------------| 
|-----------------| 
|-6/--6-6----4--4-| 
|-4/--4-4----2--2-| 
 
 
Pre Chorus: 
|----------------------| 
|----------------------| 
|----------------------| 
|-2-1---9-----8--11-6--| 
|-----4-7-----6--9--6/-| 
|-------0-----------4/-| 
         
Chorus: 
|---------------------------------------------------------| 
|---------------------------------------------------------| 
|---------------------------------------------------------| 
|-----------1---------2-1----------------------------1----| 
|-----2---2-------2-------4-2-2-4-2-4-2-4-2-4--2-4-2--4-2-| 
|-4-4---4-----4-4---4---------0-2-0-2-0-2-0-2--0-2-0------| 
 
                            |------------------------| 
                            |------------------------| 
                            |------------------------| guitar 2  
                            |-2-4-2-4-2-4-2-4--2-4-2-|  
                            |------------------------| 
                            |------------------------| 
 
 
this is what guitar 2 plays during the main riff: 
|---------------------------------------------------------------------------| 
|---------------------------------------------------------------------------| 
|-----------8-8-11-11-9-9---------8-------8-8------------------------8------| 
|-------9-9---------------11-11-9---9---------11-11-9-9----------------11-9-| 
|-11-11-------------------------------9-9---------------11-11-9-9-11--------| 
|---------------------------------------------------------------------------|
		   
AcordesyTabs.com © 2008 Acordes y Tablaturas para guitarra. Tabs and Chords for guitar. Aviso Legal - Contacto
El uso de este sitio está sujeto a la aceptación de los términos y condiciones (42 usuarios online)