tablaturas, partituras y acordes para guitarra
Busca por banda/artista:
 
y/o título de la canción:
A B C D E F G H I J K L M N O P Q R S T U V W X Y Z 0 1 2 3 4 5 6 7 8 9 / Top 100 tabs
Categorías
Usuarios
usuario:
Darse de alta
password:
Artistas más visitados
Publicidad
TOP acordes y tablaturas de Cky
:: Fat f - Cky


Estás en: Inicio > Letra C > Acordes y tablaturas de Cky > Skeletor beastman
Skeletor beastman
de Cky
Puntúa este acorde/tab:      
(0.2/5)
Reportar este acorde/tab
  Añadir a tus favoritos
  Imprimir
Transcribed by: Rudy Guzman 
E-mail: guzman84@hotmail.com 
 
 5 steps down 
INTRO: 
    2 times 
 B:--------------------| 
F#:--------------------| 
 D:--------------------| 
 A:--------------------| 
 E:-0---7---0----------| 
 B:--------------3---0-| 
 
 
 B:-----------------------| 
F#:-----------------------| 
 D:-----------------------| 
 A:-----------------------| 
 E:-0--0-7---0------------| 
 B:---------------3-1---0-| 
 
 B:--------------------| 
F#:--------------------| 
 D:--------------------| 
 A:--------------------| 
 E:-0---7---0----------| 
 B:--------------3---0-| 
 
  5 times 
 B:-------------------------------------------------| 
F#:-------------------------------------------------| 
 D:-------------------------------------------------| 
 A:-------------------------------------------------| 
 E:-0--(0)--7--(7)---0----(0)-----------------------| 
 B:------------------------------3--(3)----0---(0)--| 
 
4 times 
:------------------------------------------| 
:------------------------------------------| 
:------------------------------------------| 
:---2-----------2------------2-------------| 
:--------2------------2-----------2--------| 
:-0---3------0-----3------0----3-----1---0-| 
 
 
  11 times 
 B:-------------------------------------------------| 
F#:-------------------------------------------------| 
 D:-------------------------------------------------| 
 A:-------------------------------------------------| 
 E:-0--(0)--7--(7)---0----(0)-----------------------| 
 B:------------------------------3--(3)----0---(0)--| 
 
 
 B:---------------------------------------------------------| 
F#:---------------------------------------------------------| 
 D:---------------------------------------------------------| 
 A:---------------------------------------------------------| 
 E:-0--7-----6--0------7---6--0-------7-----6--0------------| 
 B:-------0---------4----0--------3------0----------1---1-0-| 
 
 
 B:---------------------------------------------------------| 
F#:---------------------------------------------------------| 
 D:---------------------------------------------------------| 
 A:---------------------------------------------------------| 
 E:-0--7-----6--0------7---6--0-------7-----6--0------------| 
 B:-------0---------4----0--------3------0----------1---1-0-| 
 
 
 B:-------------------------| 
F#:-------------------------| 
 D:-------------------------| 
 A:-------------------------| 
 E:-0---7---0---------------| 
 B:--------------3---0----3-|
		   
AcordesyTabs.com © 2008 Acordes y Tablaturas para guitarra. Tabs and Chords for guitar. Aviso Legal - Contacto
El uso de este sitio está sujeto a la aceptación de los términos y condiciones (38 usuarios online)